ISO-10303-21;
HEADER;
/****************************************************************
 * Generated by software with PDElib inside                    *
 * PDElib Version v51a, created Wed 11/30/2011                  *
 * ITI Transcendata (http://www.transcendata.com/)              *
 ****************************************************************/
FILE_DESCRIPTION((''),'2;1');
FILE_NAME('\\\\WIN\\Rysunki\\Inventor\\@System profili aluminiowych\\Nakr\X2\0119\X0\tki\\AR6009.stp','2016-07-14T11:02:18',('Envy'),(''),'Autodesk Inventor 2013','Autodesk Inventor 2013','');
FILE_SCHEMA(('AUTOMOTIVE_DESIGN { 1 0 10303 214 1 1 1 1 }'));
ENDSEC;
DATA;
#5=APPLICATION_CONTEXT('automotive design');
#6=APPLICATION_PROTOCOL_DEFINITION('International Standard','automotive_design',2001,#5);
#7=PRODUCT_CONTEXT('',#5,'mechanical');
#8=PRODUCT('AR6009','AR6009',$,(#7));
#9=PRODUCT_RELATED_PRODUCT_CATEGORY('part',$,(#8));
#10=PRODUCT_DEFINITION_FORMATION('',$,#8);
#11=PRODUCT_DEFINITION_CONTEXT('part definition',#5,'design');
#12=PRODUCT_DEFINITION('',$,#10,#11);
#18=(NAMED_UNIT(*)PLANE_ANGLE_UNIT()SI_UNIT($,.RADIAN.));
#19=DIMENSIONAL_EXPONENTS(0.0,0.0,0.0,0.0,0.0,0.0,0.0);
#20=PLANE_ANGLE_MEASURE_WITH_UNIT(PLANE_ANGLE_MEASURE(0.0174532925),#18);
#24=(CONVERSION_BASED_UNIT('DEGREE',#20)NAMED_UNIT(#19)PLANE_ANGLE_UNIT());
#28=(NAMED_UNIT(*)SI_UNIT($,.STERADIAN.)SOLID_ANGLE_UNIT());
#32=(LENGTH_UNIT()NAMED_UNIT(*)SI_UNIT(.MILLI.,.METRE.));
#34=UNCERTAINTY_MEASURE_WITH_UNIT(LENGTH_MEASURE(0.01),#32,'DISTANCE_ACCURACY_VALUE','');
#36=(GEOMETRIC_REPRESENTATION_CONTEXT(3)GLOBAL_UNCERTAINTY_ASSIGNED_CONTEXT((#34))GLOBAL_UNIT_ASSIGNED_CONTEXT((#24,#28,#32))REPRESENTATION_CONTEXT('None','None'));
#37=AXIS2_PLACEMENT_3D('',#38,#39,#40);
#38=CARTESIAN_POINT('',(0.0,0.0,0.0));
#39=DIRECTION('',(0.0,0.0,1.0));
#40=DIRECTION('',(1.0,0.0,0.0));
#41=SHAPE_REPRESENTATION('',(#37),#36);
#42=PRODUCT_DEFINITION_SHAPE('','',#12);
#43=SHAPE_DEFINITION_REPRESENTATION(#42,#41);
#49=(NAMED_UNIT(*)PLANE_ANGLE_UNIT()SI_UNIT($,.RADIAN.));
#50=DIMENSIONAL_EXPONENTS(0.0,0.0,0.0,0.0,0.0,0.0,0.0);
#51=PLANE_ANGLE_MEASURE_WITH_UNIT(PLANE_ANGLE_MEASURE(0.0174532925),#49);
#55=(CONVERSION_BASED_UNIT('DEGREE',#51)NAMED_UNIT(#50)PLANE_ANGLE_UNIT());
#59=(NAMED_UNIT(*)SI_UNIT($,.STERADIAN.)SOLID_ANGLE_UNIT());
#63=(LENGTH_UNIT()NAMED_UNIT(*)SI_UNIT(.MILLI.,.METRE.));
#65=UNCERTAINTY_MEASURE_WITH_UNIT(LENGTH_MEASURE(0.000001),#63,'DISTANCE_ACCURACY_VALUE','');
#67=(GEOMETRIC_REPRESENTATION_CONTEXT(3)GLOBAL_UNCERTAINTY_ASSIGNED_CONTEXT((#65))GLOBAL_UNIT_ASSIGNED_CONTEXT((#55,#59,#63))REPRESENTATION_CONTEXT('','3D'));
#68=CARTESIAN_POINT('',(0.15625,0.0,0.0));
#69=DIRECTION('',(-1.0,0.0,0.0));
#70=DIRECTION('',(0.0,0.0,-1.0));
#71=AXIS2_PLACEMENT_3D('',#68,#69,#70);
#72=CONICAL_SURFACE('',#71,2.729132938682637,60.000000000000036);
#73=CARTESIAN_POINT('',(0.3125,-3.010794E-016,2.4585));
#74=VERTEX_POINT('',#73);
#75=CARTESIAN_POINT('',(0.3125,0.0,0.0));
#76=DIRECTION('',(1.0,0.0,0.0));
#77=DIRECTION('',(0.0,0.0,-1.0));
#78=AXIS2_PLACEMENT_3D('',#75,#76,#77);
#79=CIRCLE('',#78,2.4585);
#80=EDGE_CURVE('',#74,#74,#79,.T.);
#81=ORIENTED_EDGE('',*,*,#80,.T.);
#82=EDGE_LOOP('',(#81));
#83=FACE_OUTER_BOUND('',#82,.T.);
#84=CARTESIAN_POINT('',(0.0,3.673654E-016,2.999765877365275));
#85=VERTEX_POINT('',#84);
#86=CARTESIAN_POINT('',(0.0,0.0,0.0));
#87=DIRECTION('',(-1.0,0.0,0.0));
#88=DIRECTION('',(0.0,0.0,-1.0));
#89=AXIS2_PLACEMENT_3D('',#86,#87,#88);
#90=CIRCLE('',#89,2.999765877365275);
#91=EDGE_CURVE('',#85,#85,#90,.T.);
#92=ORIENTED_EDGE('',*,*,#91,.T.);
#93=EDGE_LOOP('',(#92));
#94=FACE_BOUND('',#93,.T.);
#95=ADVANCED_FACE('',(#83,#94),#72,.F.);
#96=CARTESIAN_POINT('',(-10.981224725742551,0.0,0.0));
#97=DIRECTION('',(1.0,0.0,0.0));
#98=DIRECTION('',(0.0,0.0,-1.0));
#99=AXIS2_PLACEMENT_3D('',#96,#97,#98);
#100=CYLINDRICAL_SURFACE('',#99,2.4585);
#101=CARTESIAN_POINT('',(4.8875,-3.010794E-016,-2.4585));
#102=VERTEX_POINT('',#101);
#103=CARTESIAN_POINT('',(4.8875,0.0,0.0));
#104=DIRECTION('',(-1.0,0.0,0.0));
#105=DIRECTION('',(0.0,0.0,1.0));
#106=AXIS2_PLACEMENT_3D('',#103,#104,#105);
#107=CIRCLE('',#106,2.4585);
#108=EDGE_CURVE('',#102,#102,#107,.T.);
#109=ORIENTED_EDGE('',*,*,#108,.F.);
#110=EDGE_LOOP('',(#109));
#111=FACE_OUTER_BOUND('',#110,.T.);
#112=ORIENTED_EDGE('',*,*,#80,.F.);
#113=EDGE_LOOP('',(#112));
#114=FACE_BOUND('',#113,.T.);
#115=ADVANCED_FACE('',(#111,#114),#100,.F.);
#116=CARTESIAN_POINT('',(0.0,1.110223E-015,-2.081668E-015));
#117=DIRECTION('',(1.0,0.0,0.0));
#118=DIRECTION('',(0.0,0.0,-1.0));
#119=AXIS2_PLACEMENT_3D('',#116,#117,#118);
#120=PLANE('',#119);
#121=CARTESIAN_POINT('',(0.0,4.450000000000001,0.0));
#122=VERTEX_POINT('',#121);
#123=CARTESIAN_POINT('',(0.0,0.0,0.0));
#124=DIRECTION('',(-1.0,0.0,0.0));
#125=DIRECTION('',(0.0,1.0,0.0));
#126=AXIS2_PLACEMENT_3D('',#123,#124,#125);
#127=CIRCLE('',#126,4.450000000000001);
#128=EDGE_CURVE('',#122,#122,#127,.T.);
#129=ORIENTED_EDGE('',*,*,#128,.T.);
#130=EDGE_LOOP('',(#129));
#131=FACE_OUTER_BOUND('',#130,.T.);
#132=ORIENTED_EDGE('',*,*,#91,.F.);
#133=EDGE_LOOP('',(#132));
#134=FACE_BOUND('',#133,.T.);
#135=ADVANCED_FACE('',(#131,#134),#120,.F.);
#136=CARTESIAN_POINT('',(5.04375,0.0,0.0));
#137=DIRECTION('',(1.0,0.0,0.0));
#138=DIRECTION('',(0.0,0.0,1.0));
#139=AXIS2_PLACEMENT_3D('',#136,#137,#138);
#140=CONICAL_SURFACE('',#139,2.729132938682637,60.000000000000036);
#141=ORIENTED_EDGE('',*,*,#108,.T.);
#142=EDGE_LOOP('',(#141));
#143=FACE_OUTER_BOUND('',#142,.T.);
#144=CARTESIAN_POINT('',(5.2,3.673654E-016,-2.999765877365275));
#145=VERTEX_POINT('',#144);
#146=CARTESIAN_POINT('',(5.2,0.0,0.0));
#147=DIRECTION('',(1.0,0.0,0.0));
#148=DIRECTION('',(0.0,0.0,1.0));
#149=AXIS2_PLACEMENT_3D('',#146,#147,#148);
#150=CIRCLE('',#149,2.999765877365275);
#151=EDGE_CURVE('',#145,#145,#150,.T.);
#152=ORIENTED_EDGE('',*,*,#151,.T.);
#153=EDGE_LOOP('',(#152));
#154=FACE_BOUND('',#153,.T.);
#155=ADVANCED_FACE('',(#143,#154),#140,.F.);
#156=CARTESIAN_POINT('',(5.2,1.135455E-015,-2.081668E-015));
#157=DIRECTION('',(1.0,0.0,0.0));
#158=DIRECTION('',(0.0,0.0,-1.0));
#159=AXIS2_PLACEMENT_3D('',#156,#157,#158);
#160=PLANE('',#159);
#161=CARTESIAN_POINT('',(5.2,4.450000000000001,0.0));
#162=VERTEX_POINT('',#161);
#163=CARTESIAN_POINT('',(5.2,0.0,0.0));
#164=DIRECTION('',(1.0,0.0,0.0));
#165=DIRECTION('',(0.0,1.0,0.0));
#166=AXIS2_PLACEMENT_3D('',#163,#164,#165);
#167=CIRCLE('',#166,4.450000000000001);
#168=EDGE_CURVE('',#162,#162,#167,.T.);
#169=ORIENTED_EDGE('',*,*,#168,.T.);
#170=EDGE_LOOP('',(#169));
#171=FACE_OUTER_BOUND('',#170,.T.);
#172=ORIENTED_EDGE('',*,*,#151,.F.);
#173=EDGE_LOOP('',(#172));
#174=FACE_BOUND('',#173,.T.);
#175=ADVANCED_FACE('',(#171,#174),#160,.T.);
#176=CARTESIAN_POINT('',(0.382062317719749,0.0,0.0));
#177=DIRECTION('',(1.0,0.0,0.0));
#178=DIRECTION('',(0.0,1.0,0.0));
#179=AXIS2_PLACEMENT_3D('',#176,#177,#178);
#180=CONICAL_SURFACE('',#179,5.111751345948129,60.000000000000021);
#181=CARTESIAN_POINT('',(0.764124635439498,2.886751345948129,4.999999999999998));
#182=VERTEX_POINT('',#181);
#183=CARTESIAN_POINT('',(0.764124635439498,-2.886751345948129,4.999999999999998));
#184=VERTEX_POINT('',#183);
#185=CARTESIAN_POINT('',(0.764124635439498,2.88675134594813,4.999999999999998));
#186=CARTESIAN_POINT('',(-0.069208697893836,0.0,4.999999999999998));
#187=CARTESIAN_POINT('',(0.764124635439498,-2.88675134594813,4.999999999999998));
#195=(BOUNDED_CURVE()B_SPLINE_CURVE(2,(#185,#186,#187),.UNSPECIFIED.,.F.,.U.)B_SPLINE_CURVE_WITH_KNOTS((3,3),(0.0,0.584218069038959),.UNSPECIFIED.)CURVE()GEOMETRIC_REPRESENTATION_ITEM()RATIONAL_B_SPLINE_CURVE((1.0,1.154700538379252,1.0))REPRESENTATION_ITEM(''));
#196=EDGE_CURVE('',#182,#184,#195,.T.);
#197=ORIENTED_EDGE('',*,*,#196,.F.);
#198=CARTESIAN_POINT('',(0.764124635439498,5.773502691896258,0.0));
#199=VERTEX_POINT('',#198);
#200=CARTESIAN_POINT('',(0.764124635439498,5.773502691896258,2.821385E-015));
#201=CARTESIAN_POINT('',(-0.069208697893835,4.330127018922188,2.500000000000004));
#202=CARTESIAN_POINT('',(0.764124635439498,2.886751345948126,5.000000000000002));
#210=(BOUNDED_CURVE()B_SPLINE_CURVE(2,(#200,#201,#202),.UNSPECIFIED.,.F.,.U.)B_SPLINE_CURVE_WITH_KNOTS((3,3),(0.0,0.584218069038959),.UNSPECIFIED.)CURVE()GEOMETRIC_REPRESENTATION_ITEM()RATIONAL_B_SPLINE_CURVE((1.0,1.154700538379252,1.0))REPRESENTATION_ITEM(''));
#211=EDGE_CURVE('',#199,#182,#210,.T.);
#212=ORIENTED_EDGE('',*,*,#211,.F.);
#213=CARTESIAN_POINT('',(0.764124635439498,2.886751345948144,-4.999999999999991));
#214=VERTEX_POINT('',#213);
#215=CARTESIAN_POINT('',(0.764124635439498,2.886751345948142,-4.999999999999993));
#216=CARTESIAN_POINT('',(-0.069208697893832,4.330127018922201,-2.499999999999995));
#217=CARTESIAN_POINT('',(0.764124635439498,5.773502691896258,2.507898E-015));
#225=(BOUNDED_CURVE()B_SPLINE_CURVE(2,(#215,#216,#217),.UNSPECIFIED.,.F.,.U.)B_SPLINE_CURVE_WITH_KNOTS((3,3),(0.0,0.584218069038958),.UNSPECIFIED.)CURVE()GEOMETRIC_REPRESENTATION_ITEM()RATIONAL_B_SPLINE_CURVE((1.0,1.15470053837925,1.0))REPRESENTATION_ITEM(''));
#226=EDGE_CURVE('',#214,#199,#225,.T.);
#227=ORIENTED_EDGE('',*,*,#226,.F.);
#228=CARTESIAN_POINT('',(0.764124635439498,-2.886751345948108,-5.000000000000012));
#229=VERTEX_POINT('',#228);
#230=CARTESIAN_POINT('',(0.764124635439497,-2.886751345948108,-5.000000000000012));
#231=CARTESIAN_POINT('',(-0.069208697893829,1.165734E-014,-5.000000000000005));
#232=CARTESIAN_POINT('',(0.764124635439498,2.886751345948129,-4.999999999999998));
#240=(BOUNDED_CURVE()B_SPLINE_CURVE(2,(#230,#231,#232),.UNSPECIFIED.,.F.,.U.)B_SPLINE_CURVE_WITH_KNOTS((3,3),(0.0,0.584218069038957),.UNSPECIFIED.)CURVE()GEOMETRIC_REPRESENTATION_ITEM()RATIONAL_B_SPLINE_CURVE((1.0,1.15470053837925,1.0))REPRESENTATION_ITEM(''));
#241=EDGE_CURVE('',#229,#214,#240,.T.);
#242=ORIENTED_EDGE('',*,*,#241,.F.);
#243=CARTESIAN_POINT('',(0.764124635439498,-5.773502691896258,5.551115E-016));
#244=VERTEX_POINT('',#243);
#245=CARTESIAN_POINT('',(0.764124635439498,-5.773502691896258,0.0));
#246=CARTESIAN_POINT('',(-0.069208697893838,-4.330127018922188,-2.500000000000004));
#247=CARTESIAN_POINT('',(0.764124635439497,-2.886751345948119,-5.000000000000005));
#255=(BOUNDED_CURVE()B_SPLINE_CURVE(2,(#245,#246,#247),.UNSPECIFIED.,.F.,.U.)B_SPLINE_CURVE_WITH_KNOTS((3,3),(0.0,0.58421806903896),.UNSPECIFIED.)CURVE()GEOMETRIC_REPRESENTATION_ITEM()RATIONAL_B_SPLINE_CURVE((1.0,1.15470053837925,1.0))REPRESENTATION_ITEM(''));
#256=EDGE_CURVE('',#244,#229,#255,.T.);
#257=ORIENTED_EDGE('',*,*,#256,.F.);
#258=CARTESIAN_POINT('',(0.764124635439498,-2.886751345948131,4.999999999999998));
#259=CARTESIAN_POINT('',(-0.069208697893834,-4.330127018922195,2.5));
#260=CARTESIAN_POINT('',(0.764124635439498,-5.773502691896258,0.0));
#268=(BOUNDED_CURVE()B_SPLINE_CURVE(2,(#258,#259,#260),.UNSPECIFIED.,.F.,.U.)B_SPLINE_CURVE_WITH_KNOTS((3,3),(0.0,0.584218069038959),.UNSPECIFIED.)CURVE()GEOMETRIC_REPRESENTATION_ITEM()RATIONAL_B_SPLINE_CURVE((1.0,1.154700538379252,1.0))REPRESENTATION_ITEM(''));
#269=EDGE_CURVE('',#184,#244,#268,.T.);
#270=ORIENTED_EDGE('',*,*,#269,.F.);
#271=EDGE_LOOP('',(#197,#212,#227,#242,#257,#270));
#272=FACE_OUTER_BOUND('',#271,.T.);
#273=ORIENTED_EDGE('',*,*,#128,.F.);
#274=EDGE_LOOP('',(#273));
#275=FACE_BOUND('',#274,.T.);
#276=ADVANCED_FACE('',(#272,#275),#180,.T.);
#277=CARTESIAN_POINT('',(4.817937682280252,0.0,0.0));
#278=DIRECTION('',(-1.0,0.0,0.0));
#279=DIRECTION('',(0.0,1.0,0.0));
#280=AXIS2_PLACEMENT_3D('',#277,#278,#279);
#281=CONICAL_SURFACE('',#280,5.111751345948129,60.000000000000021);
#282=CARTESIAN_POINT('',(4.4358753645605,2.886751345948129,4.999999999999998));
#283=VERTEX_POINT('',#282);
#284=CARTESIAN_POINT('',(4.4358753645605,5.773502691896258,0.0));
#285=VERTEX_POINT('',#284);
#286=CARTESIAN_POINT('',(4.4358753645605,2.886751345948126,4.999999999999998));
#287=CARTESIAN_POINT('',(5.269208697893833,4.330127018922193,2.5));
#288=CARTESIAN_POINT('',(4.435875364560504,5.773502691896256,6.896720E-015));
#296=(BOUNDED_CURVE()B_SPLINE_CURVE(2,(#286,#287,#288),.UNSPECIFIED.,.F.,.U.)B_SPLINE_CURVE_WITH_KNOTS((3,3),(0.0,0.584218069038958),.UNSPECIFIED.)CURVE()GEOMETRIC_REPRESENTATION_ITEM()RATIONAL_B_SPLINE_CURVE((1.0,1.154700538379252,1.0))REPRESENTATION_ITEM(''));
#297=EDGE_CURVE('',#283,#285,#296,.T.);
#298=ORIENTED_EDGE('',*,*,#297,.F.);
#299=CARTESIAN_POINT('',(4.4358753645605,-2.886751345948129,4.999999999999998));
#300=VERTEX_POINT('',#299);
#301=CARTESIAN_POINT('',(4.4358753645605,-2.886751345948129,4.999999999999998));
#302=CARTESIAN_POINT('',(5.269208697893836,0.0,4.999999999999998));
#303=CARTESIAN_POINT('',(4.4358753645605,2.886751345948129,4.999999999999998));
#311=(BOUNDED_CURVE()B_SPLINE_CURVE(2,(#301,#302,#303),.UNSPECIFIED.,.F.,.U.)B_SPLINE_CURVE_WITH_KNOTS((3,3),(0.0,0.584218069038959),.UNSPECIFIED.)CURVE()GEOMETRIC_REPRESENTATION_ITEM()RATIONAL_B_SPLINE_CURVE((1.0,1.15470053837925,1.0))REPRESENTATION_ITEM(''));
#312=EDGE_CURVE('',#300,#283,#311,.T.);
#313=ORIENTED_EDGE('',*,*,#312,.F.);
#314=CARTESIAN_POINT('',(4.4358753645605,-5.773502691896258,5.551115E-016));
#315=VERTEX_POINT('',#314);
#316=CARTESIAN_POINT('',(4.4358753645605,-5.773502691896258,6.269745E-016));
#317=CARTESIAN_POINT('',(5.269208697893833,-4.330127018922195,2.499999999999997));
#318=CARTESIAN_POINT('',(4.4358753645605,-2.886751345948131,4.999999999999998));
#326=(BOUNDED_CURVE()B_SPLINE_CURVE(2,(#316,#317,#318),.UNSPECIFIED.,.F.,.U.)B_SPLINE_CURVE_WITH_KNOTS((3,3),(0.0,0.584218069038959),.UNSPECIFIED.)CURVE()GEOMETRIC_REPRESENTATION_ITEM()RATIONAL_B_SPLINE_CURVE((1.0,1.154700538379247,1.0))REPRESENTATION_ITEM(''));
#327=EDGE_CURVE('',#315,#300,#326,.T.);
#328=ORIENTED_EDGE('',*,*,#327,.F.);
#329=CARTESIAN_POINT('',(4.4358753645605,-2.886751345948108,-5.000000000000012));
#330=VERTEX_POINT('',#329);
#331=CARTESIAN_POINT('',(4.4358753645605,-2.886751345948119,-5.000000000000005));
#332=CARTESIAN_POINT('',(5.26920869789384,-4.330127018922188,-2.500000000000003));
#333=CARTESIAN_POINT('',(4.4358753645605,-5.773502691896258,0.0));
#341=(BOUNDED_CURVE()B_SPLINE_CURVE(2,(#331,#332,#333),.UNSPECIFIED.,.F.,.U.)B_SPLINE_CURVE_WITH_KNOTS((3,3),(0.0,0.58421806903896),.UNSPECIFIED.)CURVE()GEOMETRIC_REPRESENTATION_ITEM()RATIONAL_B_SPLINE_CURVE((1.0,1.15470053837925,1.0))REPRESENTATION_ITEM(''));
#342=EDGE_CURVE('',#330,#315,#341,.T.);
#343=ORIENTED_EDGE('',*,*,#342,.F.);
#344=CARTESIAN_POINT('',(4.4358753645605,2.886751345948144,-4.999999999999991));
#345=VERTEX_POINT('',#344);
#346=CARTESIAN_POINT('',(4.4358753645605,2.886751345948129,-4.999999999999998));
#347=CARTESIAN_POINT('',(5.269208697893831,1.165734E-014,-5.000000000000005));
#348=CARTESIAN_POINT('',(4.4358753645605,-2.886751345948108,-5.000000000000012));
#356=(BOUNDED_CURVE()B_SPLINE_CURVE(2,(#346,#347,#348),.UNSPECIFIED.,.F.,.U.)B_SPLINE_CURVE_WITH_KNOTS((3,3),(0.0,0.584218069038957),.UNSPECIFIED.)CURVE()GEOMETRIC_REPRESENTATION_ITEM()RATIONAL_B_SPLINE_CURVE((1.0,1.154700538379252,1.0))REPRESENTATION_ITEM(''));
#357=EDGE_CURVE('',#345,#330,#356,.T.);
#358=ORIENTED_EDGE('',*,*,#357,.F.);
#359=CARTESIAN_POINT('',(4.435875364560504,5.773502691896258,0.0));
#360=CARTESIAN_POINT('',(5.269208697893832,4.3301270189222,-2.499999999999998));
#361=CARTESIAN_POINT('',(4.4358753645605,2.886751345948144,-4.999999999999991));
#369=(BOUNDED_CURVE()B_SPLINE_CURVE(2,(#359,#360,#361),.UNSPECIFIED.,.F.,.U.)B_SPLINE_CURVE_WITH_KNOTS((3,3),(0.0,0.584218069038958),.UNSPECIFIED.)CURVE()GEOMETRIC_REPRESENTATION_ITEM()RATIONAL_B_SPLINE_CURVE((1.0,1.154700538379248,1.0))REPRESENTATION_ITEM(''));
#370=EDGE_CURVE('',#285,#345,#369,.T.);
#371=ORIENTED_EDGE('',*,*,#370,.F.);
#372=EDGE_LOOP('',(#298,#313,#328,#343,#358,#371));
#373=FACE_OUTER_BOUND('',#372,.T.);
#374=ORIENTED_EDGE('',*,*,#168,.F.);
#375=EDGE_LOOP('',(#374));
#376=FACE_BOUND('',#375,.T.);
#377=ADVANCED_FACE('',(#373,#376),#281,.T.);
#378=CARTESIAN_POINT('',(0.0,5.773502691896258,2.288764E-015));
#379=DIRECTION('',(0.0,0.866025403784439,-0.499999999999999));
#380=DIRECTION('',(0.0,0.499999999999999,0.866025403784439));
#381=AXIS2_PLACEMENT_3D('',#378,#379,#380);
#382=PLANE('',#381);
#383=ORIENTED_EDGE('',*,*,#226,.T.);
#384=CARTESIAN_POINT('',(0.764124635439498,5.773502691896258,2.288764E-015));
#385=DIRECTION('',(1.0,0.0,0.0));
#386=VECTOR('',#385,3.671750729121002);
#387=LINE('',#384,#386);
#388=EDGE_CURVE('',#199,#285,#387,.T.);
#389=ORIENTED_EDGE('',*,*,#388,.T.);
#390=ORIENTED_EDGE('',*,*,#370,.T.);
#391=CARTESIAN_POINT('',(0.764124635439498,2.886751345948139,-4.999999999999998));
#392=DIRECTION('',(1.0,0.0,0.0));
#393=VECTOR('',#392,3.671750729121002);
#394=LINE('',#391,#393);
#395=EDGE_CURVE('',#214,#345,#394,.T.);
#396=ORIENTED_EDGE('',*,*,#395,.F.);
#397=EDGE_LOOP('',(#383,#389,#390,#396));
#398=FACE_OUTER_BOUND('',#397,.T.);
#399=ADVANCED_FACE('',(#398),#382,.T.);
#400=CARTESIAN_POINT('',(0.0,2.886751345948139,-4.999999999999998));
#401=DIRECTION('',(0.0,0.0,-1.0));
#402=DIRECTION('',(-1.0,0.0,0.0));
#403=AXIS2_PLACEMENT_3D('',#400,#401,#402);
#404=PLANE('',#403);
#405=ORIENTED_EDGE('',*,*,#241,.T.);
#406=ORIENTED_EDGE('',*,*,#395,.T.);
#407=ORIENTED_EDGE('',*,*,#357,.T.);
#408=CARTESIAN_POINT('',(0.764124635439498,-2.886751345948114,-5.000000000000012));
#409=DIRECTION('',(1.0,0.0,0.0));
#410=VECTOR('',#409,3.671750729121002);
#411=LINE('',#408,#410);
#412=EDGE_CURVE('',#229,#330,#411,.T.);
#413=ORIENTED_EDGE('',*,*,#412,.F.);
#414=EDGE_LOOP('',(#405,#406,#407,#413));
#415=FACE_OUTER_BOUND('',#414,.T.);
#416=ADVANCED_FACE('',(#415),#404,.T.);
#417=CARTESIAN_POINT('',(0.0,2.886751345948126,4.999999999999998));
#418=DIRECTION('',(0.0,0.866025403784438,0.5));
#419=DIRECTION('',(1.0,0.0,0.0));
#420=AXIS2_PLACEMENT_3D('',#417,#418,#419);
#421=PLANE('',#420);
#422=ORIENTED_EDGE('',*,*,#211,.T.);
#423=CARTESIAN_POINT('',(0.764124635439498,2.886751345948126,4.999999999999998));
#424=DIRECTION('',(1.0,0.0,0.0));
#425=VECTOR('',#424,3.671750729121002);
#426=LINE('',#423,#425);
#427=EDGE_CURVE('',#182,#283,#426,.T.);
#428=ORIENTED_EDGE('',*,*,#427,.T.);
#429=ORIENTED_EDGE('',*,*,#297,.T.);
#430=ORIENTED_EDGE('',*,*,#388,.F.);
#431=EDGE_LOOP('',(#422,#428,#429,#430));
#432=FACE_OUTER_BOUND('',#431,.T.);
#433=ADVANCED_FACE('',(#432),#421,.T.);
#434=CARTESIAN_POINT('',(0.0,-2.88675134594813,4.999999999999998));
#435=DIRECTION('',(0.0,0.0,1.0));
#436=DIRECTION('',(1.0,0.0,0.0));
#437=AXIS2_PLACEMENT_3D('',#434,#435,#436);
#438=PLANE('',#437);
#439=ORIENTED_EDGE('',*,*,#196,.T.);
#440=CARTESIAN_POINT('',(0.764124635439498,-2.88675134594813,4.999999999999998));
#441=DIRECTION('',(1.0,0.0,0.0));
#442=VECTOR('',#441,3.671750729121002);
#443=LINE('',#440,#442);
#444=EDGE_CURVE('',#184,#300,#443,.T.);
#445=ORIENTED_EDGE('',*,*,#444,.T.);
#446=ORIENTED_EDGE('',*,*,#312,.T.);
#447=ORIENTED_EDGE('',*,*,#427,.F.);
#448=EDGE_LOOP('',(#439,#445,#446,#447));
#449=FACE_OUTER_BOUND('',#448,.T.);
#450=ADVANCED_FACE('',(#449),#438,.T.);
#451=CARTESIAN_POINT('',(0.0,-2.886751345948114,-5.000000000000012));
#452=DIRECTION('',(0.0,-0.866025403784438,-0.500000000000001));
#453=DIRECTION('',(-1.0,0.0,0.0));
#454=AXIS2_PLACEMENT_3D('',#451,#452,#453);
#455=PLANE('',#454);
#456=ORIENTED_EDGE('',*,*,#256,.T.);
#457=ORIENTED_EDGE('',*,*,#412,.T.);
#458=ORIENTED_EDGE('',*,*,#342,.T.);
#459=CARTESIAN_POINT('',(0.764124635439498,-5.773502691896258,1.006789E-015));
#460=DIRECTION('',(1.0,0.0,0.0));
#461=VECTOR('',#460,3.671750729121002);
#462=LINE('',#459,#461);
#463=EDGE_CURVE('',#244,#315,#462,.T.);
#464=ORIENTED_EDGE('',*,*,#463,.F.);
#465=EDGE_LOOP('',(#456,#457,#458,#464));
#466=FACE_OUTER_BOUND('',#465,.T.);
#467=ADVANCED_FACE('',(#466),#455,.T.);
#468=CARTESIAN_POINT('',(0.0,-5.773502691896258,1.006789E-015));
#469=DIRECTION('',(0.0,-0.866025403784439,0.5));
#470=DIRECTION('',(0.0,-0.5,-0.866025403784439));
#471=AXIS2_PLACEMENT_3D('',#468,#469,#470);
#472=PLANE('',#471);
#473=ORIENTED_EDGE('',*,*,#269,.T.);
#474=ORIENTED_EDGE('',*,*,#463,.T.);
#475=ORIENTED_EDGE('',*,*,#327,.T.);
#476=ORIENTED_EDGE('',*,*,#444,.F.);
#477=EDGE_LOOP('',(#473,#474,#475,#476));
#478=FACE_OUTER_BOUND('',#477,.T.);
#479=ADVANCED_FACE('',(#478),#472,.T.);
#480=CLOSED_SHELL('',(#95,#115,#135,#155,#175,#276,#377,#399,#416,#433,#450,#467,#479));
#481=MANIFOLD_SOLID_BREP('Bry\X2\0142\X0\a',#480);
#482=COLOUR_RGB('',0.745000004768372,0.736999988555908,0.728999972343445);
#483=FILL_AREA_STYLE_COLOUR('',#482);
#484=FILL_AREA_STYLE('',(#483));
#485=SURFACE_STYLE_FILL_AREA(#484);
#486=SURFACE_SIDE_STYLE('',(#485));
#487=SURFACE_STYLE_USAGE(.BOTH.,#486);
#488=PRESENTATION_STYLE_ASSIGNMENT((#487));
#489=STYLED_ITEM('',(#488,#517),#481);
#490=COLOUR_RGB('',0.878431379795074,0.874509811401367,0.858823537826538);
#491=FILL_AREA_STYLE_COLOUR('',#490);
#492=FILL_AREA_STYLE('',(#491));
#493=SURFACE_STYLE_FILL_AREA(#492);
#494=SURFACE_SIDE_STYLE('',(#493));
#495=SURFACE_STYLE_USAGE(.BOTH.,#494);
#496=PRESENTATION_STYLE_ASSIGNMENT((#495));
#497=OVER_RIDING_STYLED_ITEM('',(#496),#95,#489);
#498=OVER_RIDING_STYLED_ITEM('',(#496),#115,#489);
#499=OVER_RIDING_STYLED_ITEM('',(#496),#135,#489);
#500=OVER_RIDING_STYLED_ITEM('',(#496),#155,#489);
#501=OVER_RIDING_STYLED_ITEM('',(#496),#175,#489);
#502=OVER_RIDING_STYLED_ITEM('',(#496),#276,#489);
#503=OVER_RIDING_STYLED_ITEM('',(#496),#377,#489);
#504=OVER_RIDING_STYLED_ITEM('',(#496),#399,#489);
#505=OVER_RIDING_STYLED_ITEM('',(#496),#416,#489);
#506=OVER_RIDING_STYLED_ITEM('',(#496),#433,#489);
#507=OVER_RIDING_STYLED_ITEM('',(#496),#450,#489);
#508=OVER_RIDING_STYLED_ITEM('',(#496),#467,#489);
#509=OVER_RIDING_STYLED_ITEM('',(#496),#479,#489);
#510=MECHANICAL_DESIGN_GEOMETRIC_PRESENTATION_REPRESENTATION('',(#489,#497,#498,#499,#500,#501,#502,#503,#504,#505,#506,#507,#508,#509),#67);
#511=COLOUR_RGB('190,188,186',0.745000004768372,0.736999988555908,0.728999972343445);
#512=FILL_AREA_STYLE_COLOUR('190,188,186',#511);
#513=FILL_AREA_STYLE('190,188,186',(#512));
#514=SURFACE_STYLE_FILL_AREA(#513);
#515=SURFACE_SIDE_STYLE('190,188,186',(#514));
#516=SURFACE_STYLE_USAGE(.BOTH.,#515);
#517=PRESENTATION_STYLE_ASSIGNMENT((#516));
#518=ADVANCED_BREP_SHAPE_REPRESENTATION('ABSR',(#481),#36);
#519=SHAPE_REPRESENTATION_RELATIONSHIP('SRR','None',#518,#41);
ENDSEC;
END-ISO-10303-21;
