ISO-10303-21;
HEADER;
/****************************************************************
 * Generated by software with PDElib inside                    *
 * PDElib Version v51a, created Wed 11/30/2011                  *
 * ITI Transcendata (http://www.transcendata.com/)              *
 ****************************************************************/
FILE_DESCRIPTION((''),'2;1');
FILE_NAME('Z:\\Rysunki katalog\\KATALOG\\System profili\\AR3852\\AR3821.stp','2021-10-01T13:07:56',('arma01'),(''),'Autodesk Inventor 2013','Autodesk Inventor 2013','');
FILE_SCHEMA(('AUTOMOTIVE_DESIGN { 1 0 10303 214 1 1 1 1 }'));
ENDSEC;
DATA;
#5=APPLICATION_CONTEXT('automotive design');
#6=APPLICATION_PROTOCOL_DEFINITION('International Standard','automotive_design',2001,#5);
#7=PRODUCT_CONTEXT('',#5,'mechanical');
#8=PRODUCT('AR3821','AR3821',$,(#7));
#9=PRODUCT_RELATED_PRODUCT_CATEGORY('part',$,(#8));
#10=PRODUCT_DEFINITION_FORMATION('',$,#8);
#11=PRODUCT_DEFINITION_CONTEXT('part definition',#5,'design');
#12=PRODUCT_DEFINITION('',$,#10,#11);
#18=(NAMED_UNIT(*)PLANE_ANGLE_UNIT()SI_UNIT($,.RADIAN.));
#19=DIMENSIONAL_EXPONENTS(0.0,0.0,0.0,0.0,0.0,0.0,0.0);
#20=PLANE_ANGLE_MEASURE_WITH_UNIT(PLANE_ANGLE_MEASURE(0.0174532925),#18);
#24=(CONVERSION_BASED_UNIT('DEGREE',#20)NAMED_UNIT(#19)PLANE_ANGLE_UNIT());
#28=(NAMED_UNIT(*)SI_UNIT($,.STERADIAN.)SOLID_ANGLE_UNIT());
#32=(LENGTH_UNIT()NAMED_UNIT(*)SI_UNIT(.MILLI.,.METRE.));
#34=UNCERTAINTY_MEASURE_WITH_UNIT(LENGTH_MEASURE(0.01),#32,'DISTANCE_ACCURACY_VALUE','');
#36=(GEOMETRIC_REPRESENTATION_CONTEXT(3)GLOBAL_UNCERTAINTY_ASSIGNED_CONTEXT((#34))GLOBAL_UNIT_ASSIGNED_CONTEXT((#24,#28,#32))REPRESENTATION_CONTEXT('None','None'));
#37=AXIS2_PLACEMENT_3D('',#38,#39,#40);
#38=CARTESIAN_POINT('',(0.0,0.0,0.0));
#39=DIRECTION('',(0.0,0.0,1.0));
#40=DIRECTION('',(1.0,0.0,0.0));
#41=SHAPE_REPRESENTATION('',(#37),#36);
#42=PRODUCT_DEFINITION_SHAPE('','',#12);
#43=SHAPE_DEFINITION_REPRESENTATION(#42,#41);
#49=(NAMED_UNIT(*)PLANE_ANGLE_UNIT()SI_UNIT($,.RADIAN.));
#50=DIMENSIONAL_EXPONENTS(0.0,0.0,0.0,0.0,0.0,0.0,0.0);
#51=PLANE_ANGLE_MEASURE_WITH_UNIT(PLANE_ANGLE_MEASURE(0.0174532925),#49);
#55=(CONVERSION_BASED_UNIT('DEGREE',#51)NAMED_UNIT(#50)PLANE_ANGLE_UNIT());
#59=(NAMED_UNIT(*)SI_UNIT($,.STERADIAN.)SOLID_ANGLE_UNIT());
#63=(LENGTH_UNIT()NAMED_UNIT(*)SI_UNIT(.MILLI.,.METRE.));
#65=UNCERTAINTY_MEASURE_WITH_UNIT(LENGTH_MEASURE(0.000001),#63,'DISTANCE_ACCURACY_VALUE','');
#67=(GEOMETRIC_REPRESENTATION_CONTEXT(3)GLOBAL_UNCERTAINTY_ASSIGNED_CONTEXT((#65))GLOBAL_UNIT_ASSIGNED_CONTEXT((#55,#59,#63))REPRESENTATION_CONTEXT('','3D'));
#68=CARTESIAN_POINT('',(-1.535809E-015,5.0,0.125));
#69=DIRECTION('',(0.0,0.0,-1.0));
#70=DIRECTION('',(1.0,0.0,0.0));
#71=AXIS2_PLACEMENT_3D('',#68,#69,#70);
#72=CONICAL_SURFACE('',#71,2.5835,44.999999999999901);
#73=CARTESIAN_POINT('',(-2.458500000000002,4.999999999999999,0.250000000000001));
#74=VERTEX_POINT('',#73);
#75=CARTESIAN_POINT('',(-1.535809E-015,5.0,0.25));
#76=DIRECTION('',(0.0,0.0,1.0));
#77=DIRECTION('',(1.0,0.0,0.0));
#78=AXIS2_PLACEMENT_3D('',#75,#76,#77);
#79=CIRCLE('',#78,2.4585);
#80=EDGE_CURVE('',#74,#74,#79,.T.);
#81=ORIENTED_EDGE('',*,*,#80,.T.);
#82=EDGE_LOOP('',(#81));
#83=FACE_OUTER_BOUND('',#82,.T.);
#84=CARTESIAN_POINT('',(-2.708500000000002,5.0,0.0));
#85=VERTEX_POINT('',#84);
#86=CARTESIAN_POINT('',(-1.535809E-015,5.0,0.0));
#87=DIRECTION('',(0.0,0.0,-1.0));
#88=DIRECTION('',(1.0,0.0,0.0));
#89=AXIS2_PLACEMENT_3D('',#86,#87,#88);
#90=CIRCLE('',#89,2.7085);
#91=EDGE_CURVE('',#85,#85,#90,.T.);
#92=ORIENTED_EDGE('',*,*,#91,.T.);
#93=EDGE_LOOP('',(#92));
#94=FACE_BOUND('',#93,.T.);
#95=ADVANCED_FACE('',(#83,#94),#72,.F.);
#96=CARTESIAN_POINT('',(-5.309632E-015,5.0,-9.947473645210158));
#97=DIRECTION('',(3.700743E-016,0.0,1.0));
#98=DIRECTION('',(1.0,0.0,0.0));
#99=AXIS2_PLACEMENT_3D('',#96,#97,#98);
#100=CYLINDRICAL_SURFACE('',#99,2.4585);
#101=CARTESIAN_POINT('',(2.4585,4.999999999999999,4.15));
#102=VERTEX_POINT('',#101);
#103=CARTESIAN_POINT('',(-9.251859E-017,5.0,4.150000000000001));
#104=DIRECTION('',(0.0,0.0,-1.0));
#105=DIRECTION('',(-1.0,0.0,0.0));
#106=AXIS2_PLACEMENT_3D('',#103,#104,#105);
#107=CIRCLE('',#106,2.4585);
#108=EDGE_CURVE('',#102,#102,#107,.T.);
#109=ORIENTED_EDGE('',*,*,#108,.F.);
#110=EDGE_LOOP('',(#109));
#111=FACE_OUTER_BOUND('',#110,.T.);
#112=ORIENTED_EDGE('',*,*,#80,.F.);
#113=EDGE_LOOP('',(#112));
#114=FACE_BOUND('',#113,.T.);
#115=ADVANCED_FACE('',(#111,#114),#100,.F.);
#116=CARTESIAN_POINT('',(0.0,0.0,0.0));
#117=DIRECTION('',(0.0,0.0,-1.0));
#118=DIRECTION('',(-1.0,0.0,0.0));
#119=AXIS2_PLACEMENT_3D('',#116,#117,#118);
#120=PLANE('',#119);
#121=CARTESIAN_POINT('',(3.0,0.0,0.0));
#122=VERTEX_POINT('',#121);
#123=CARTESIAN_POINT('',(-3.0,0.0,0.0));
#124=VERTEX_POINT('',#123);
#125=CARTESIAN_POINT('',(3.0,0.0,0.0));
#126=DIRECTION('',(-1.0,0.0,0.0));
#127=VECTOR('',#126,6.000000000000001);
#128=LINE('',#125,#127);
#129=EDGE_CURVE('',#122,#124,#128,.T.);
#130=ORIENTED_EDGE('',*,*,#129,.T.);
#131=CARTESIAN_POINT('',(-3.0,10.0,0.0));
#132=VERTEX_POINT('',#131);
#133=CARTESIAN_POINT('',(-3.0,0.0,0.0));
#134=DIRECTION('',(0.0,1.0,0.0));
#135=VECTOR('',#134,10.0);
#136=LINE('',#133,#135);
#137=EDGE_CURVE('',#124,#132,#136,.T.);
#138=ORIENTED_EDGE('',*,*,#137,.T.);
#139=CARTESIAN_POINT('',(3.0,10.0,0.0));
#140=VERTEX_POINT('',#139);
#141=CARTESIAN_POINT('',(3.0,10.0,0.0));
#142=DIRECTION('',(-1.0,0.0,0.0));
#143=VECTOR('',#142,6.000000000000001);
#144=LINE('',#141,#143);
#145=EDGE_CURVE('',#140,#132,#144,.T.);
#146=ORIENTED_EDGE('',*,*,#145,.F.);
#147=CARTESIAN_POINT('',(3.0,0.0,0.0));
#148=DIRECTION('',(0.0,1.0,0.0));
#149=VECTOR('',#148,10.0);
#150=LINE('',#147,#149);
#151=EDGE_CURVE('',#122,#140,#150,.T.);
#152=ORIENTED_EDGE('',*,*,#151,.F.);
#153=EDGE_LOOP('',(#130,#138,#146,#152));
#154=FACE_OUTER_BOUND('',#153,.T.);
#155=ORIENTED_EDGE('',*,*,#91,.F.);
#156=EDGE_LOOP('',(#155));
#157=FACE_BOUND('',#156,.T.);
#158=ADVANCED_FACE('',(#154,#157),#120,.T.);
#159=CARTESIAN_POINT('',(-4.625929E-017,5.0,4.275000000000001));
#160=DIRECTION('',(3.700743E-016,0.0,1.0));
#161=DIRECTION('',(-1.0,0.0,0.0));
#162=AXIS2_PLACEMENT_3D('',#159,#160,#161);
#163=CONICAL_SURFACE('',#162,2.5835,45.000000000000149);
#164=ORIENTED_EDGE('',*,*,#108,.T.);
#165=EDGE_LOOP('',(#164));
#166=FACE_OUTER_BOUND('',#165,.T.);
#167=CARTESIAN_POINT('',(2.7085,5.0,4.4));
#168=VERTEX_POINT('',#167);
#169=CARTESIAN_POINT('',(-1.540744E-032,5.0,4.4));
#170=DIRECTION('',(0.0,0.0,1.0));
#171=DIRECTION('',(-1.0,0.0,0.0));
#172=AXIS2_PLACEMENT_3D('',#169,#170,#171);
#173=CIRCLE('',#172,2.7085);
#174=EDGE_CURVE('',#168,#168,#173,.T.);
#175=ORIENTED_EDGE('',*,*,#174,.T.);
#176=EDGE_LOOP('',(#175));
#177=FACE_BOUND('',#176,.T.);
#178=ADVANCED_FACE('',(#166,#177),#163,.F.);
#179=CARTESIAN_POINT('',(-3.0,0.0,4.400000000000002));
#180=DIRECTION('',(0.0,0.0,1.0));
#181=DIRECTION('',(1.0,0.0,0.0));
#182=AXIS2_PLACEMENT_3D('',#179,#180,#181);
#183=PLANE('',#182);
#184=CARTESIAN_POINT('',(-3.0,0.0,4.400000000000002));
#185=VERTEX_POINT('',#184);
#186=CARTESIAN_POINT('',(3.0,0.0,4.400000000000002));
#187=VERTEX_POINT('',#186);
#188=CARTESIAN_POINT('',(-3.0,0.0,4.400000000000002));
#189=DIRECTION('',(1.0,0.0,0.0));
#190=VECTOR('',#189,6.000000000000001);
#191=LINE('',#188,#190);
#192=EDGE_CURVE('',#185,#187,#191,.T.);
#193=ORIENTED_EDGE('',*,*,#192,.T.);
#194=CARTESIAN_POINT('',(3.0,10.0,4.400000000000002));
#195=VERTEX_POINT('',#194);
#196=CARTESIAN_POINT('',(3.0,0.0,4.400000000000002));
#197=DIRECTION('',(0.0,1.0,0.0));
#198=VECTOR('',#197,10.0);
#199=LINE('',#196,#198);
#200=EDGE_CURVE('',#187,#195,#199,.T.);
#201=ORIENTED_EDGE('',*,*,#200,.T.);
#202=CARTESIAN_POINT('',(-3.0,10.0,4.400000000000002));
#203=VERTEX_POINT('',#202);
#204=CARTESIAN_POINT('',(-3.0,10.0,4.400000000000002));
#205=DIRECTION('',(1.0,0.0,0.0));
#206=VECTOR('',#205,6.000000000000001);
#207=LINE('',#204,#206);
#208=EDGE_CURVE('',#203,#195,#207,.T.);
#209=ORIENTED_EDGE('',*,*,#208,.F.);
#210=CARTESIAN_POINT('',(-3.0,0.0,4.400000000000002));
#211=DIRECTION('',(0.0,1.0,0.0));
#212=VECTOR('',#211,10.0);
#213=LINE('',#210,#212);
#214=EDGE_CURVE('',#185,#203,#213,.T.);
#215=ORIENTED_EDGE('',*,*,#214,.F.);
#216=EDGE_LOOP('',(#193,#201,#209,#215));
#217=FACE_OUTER_BOUND('',#216,.T.);
#218=ORIENTED_EDGE('',*,*,#174,.F.);
#219=EDGE_LOOP('',(#218));
#220=FACE_BOUND('',#219,.T.);
#221=ADVANCED_FACE('',(#217,#220),#183,.T.);
#222=CARTESIAN_POINT('',(3.0,0.0,1.4));
#223=DIRECTION('',(1.0,0.0,0.0));
#224=DIRECTION('',(0.0,0.0,-1.0));
#225=AXIS2_PLACEMENT_3D('',#222,#223,#224);
#226=PLANE('',#225);
#227=CARTESIAN_POINT('',(3.0,0.0,1.4));
#228=VERTEX_POINT('',#227);
#229=CARTESIAN_POINT('',(3.0,0.0,1.4));
#230=DIRECTION('',(0.0,0.0,-1.0));
#231=VECTOR('',#230,1.4);
#232=LINE('',#229,#231);
#233=EDGE_CURVE('',#228,#122,#232,.T.);
#234=ORIENTED_EDGE('',*,*,#233,.T.);
#235=ORIENTED_EDGE('',*,*,#151,.T.);
#236=CARTESIAN_POINT('',(3.0,10.0,1.4));
#237=VERTEX_POINT('',#236);
#238=CARTESIAN_POINT('',(3.0,10.0,1.4));
#239=DIRECTION('',(0.0,0.0,-1.0));
#240=VECTOR('',#239,1.4);
#241=LINE('',#238,#240);
#242=EDGE_CURVE('',#237,#140,#241,.T.);
#243=ORIENTED_EDGE('',*,*,#242,.F.);
#244=CARTESIAN_POINT('',(3.0,0.0,1.4));
#245=DIRECTION('',(0.0,1.0,0.0));
#246=VECTOR('',#245,10.0);
#247=LINE('',#244,#246);
#248=EDGE_CURVE('',#228,#237,#247,.T.);
#249=ORIENTED_EDGE('',*,*,#248,.F.);
#250=EDGE_LOOP('',(#234,#235,#243,#249));
#251=FACE_OUTER_BOUND('',#250,.T.);
#252=ADVANCED_FACE('',(#251),#226,.T.);
#253=CARTESIAN_POINT('',(4.65,0.0,1.4));
#254=DIRECTION('',(0.0,0.0,-1.0));
#255=DIRECTION('',(-1.0,0.0,0.0));
#256=AXIS2_PLACEMENT_3D('',#253,#254,#255);
#257=PLANE('',#256);
#258=CARTESIAN_POINT('',(4.65,0.0,1.4));
#259=VERTEX_POINT('',#258);
#260=CARTESIAN_POINT('',(4.65,0.0,1.4));
#261=DIRECTION('',(-1.0,0.0,0.0));
#262=VECTOR('',#261,1.65);
#263=LINE('',#260,#262);
#264=EDGE_CURVE('',#259,#228,#263,.T.);
#265=ORIENTED_EDGE('',*,*,#264,.T.);
#266=ORIENTED_EDGE('',*,*,#248,.T.);
#267=CARTESIAN_POINT('',(4.65,10.0,1.4));
#268=VERTEX_POINT('',#267);
#269=CARTESIAN_POINT('',(4.65,10.0,1.4));
#270=DIRECTION('',(-1.0,0.0,0.0));
#271=VECTOR('',#270,1.65);
#272=LINE('',#269,#271);
#273=EDGE_CURVE('',#268,#237,#272,.T.);
#274=ORIENTED_EDGE('',*,*,#273,.F.);
#275=CARTESIAN_POINT('',(4.65,0.0,1.4));
#276=DIRECTION('',(0.0,1.0,0.0));
#277=VECTOR('',#276,10.0);
#278=LINE('',#275,#277);
#279=EDGE_CURVE('',#259,#268,#278,.T.);
#280=ORIENTED_EDGE('',*,*,#279,.F.);
#281=EDGE_LOOP('',(#265,#266,#274,#280));
#282=FACE_OUTER_BOUND('',#281,.T.);
#283=ADVANCED_FACE('',(#282),#257,.T.);
#284=CARTESIAN_POINT('',(4.65,0.0,2.4));
#285=DIRECTION('',(1.0,0.0,0.0));
#286=DIRECTION('',(0.0,0.0,-1.0));
#287=AXIS2_PLACEMENT_3D('',#284,#285,#286);
#288=PLANE('',#287);
#289=CARTESIAN_POINT('',(4.65,0.0,2.4));
#290=VERTEX_POINT('',#289);
#291=CARTESIAN_POINT('',(4.65,0.0,2.4));
#292=DIRECTION('',(0.0,0.0,-1.0));
#293=VECTOR('',#292,1.0);
#294=LINE('',#291,#293);
#295=EDGE_CURVE('',#290,#259,#294,.T.);
#296=ORIENTED_EDGE('',*,*,#295,.T.);
#297=ORIENTED_EDGE('',*,*,#279,.T.);
#298=CARTESIAN_POINT('',(4.65,10.0,2.4));
#299=VERTEX_POINT('',#298);
#300=CARTESIAN_POINT('',(4.65,10.0,2.4));
#301=DIRECTION('',(0.0,0.0,-1.0));
#302=VECTOR('',#301,1.0);
#303=LINE('',#300,#302);
#304=EDGE_CURVE('',#299,#268,#303,.T.);
#305=ORIENTED_EDGE('',*,*,#304,.F.);
#306=CARTESIAN_POINT('',(4.65,0.0,2.4));
#307=DIRECTION('',(0.0,1.0,0.0));
#308=VECTOR('',#307,10.0);
#309=LINE('',#306,#308);
#310=EDGE_CURVE('',#290,#299,#309,.T.);
#311=ORIENTED_EDGE('',*,*,#310,.F.);
#312=EDGE_LOOP('',(#296,#297,#305,#311));
#313=FACE_OUTER_BOUND('',#312,.T.);
#314=ADVANCED_FACE('',(#313),#288,.T.);
#315=CARTESIAN_POINT('',(3.0,0.0,4.400000000000002));
#316=DIRECTION('',(0.771373278540077,0.0,0.636382954795564));
#317=DIRECTION('',(0.636382954795564,0.0,-0.771373278540077));
#318=AXIS2_PLACEMENT_3D('',#315,#316,#317);
#319=PLANE('',#318);
#320=CARTESIAN_POINT('',(3.0,0.0,4.400000000000002));
#321=DIRECTION('',(0.636382954795564,0.0,-0.771373278540077));
#322=VECTOR('',#321,2.592778432492836);
#323=LINE('',#320,#322);
#324=EDGE_CURVE('',#187,#290,#323,.T.);
#325=ORIENTED_EDGE('',*,*,#324,.T.);
#326=ORIENTED_EDGE('',*,*,#310,.T.);
#327=CARTESIAN_POINT('',(3.0,10.0,4.400000000000002));
#328=DIRECTION('',(0.636382954795564,0.0,-0.771373278540077));
#329=VECTOR('',#328,2.592778432492836);
#330=LINE('',#327,#329);
#331=EDGE_CURVE('',#195,#299,#330,.T.);
#332=ORIENTED_EDGE('',*,*,#331,.F.);
#333=ORIENTED_EDGE('',*,*,#200,.F.);
#334=EDGE_LOOP('',(#325,#326,#332,#333));
#335=FACE_OUTER_BOUND('',#334,.T.);
#336=ADVANCED_FACE('',(#335),#319,.T.);
#337=CARTESIAN_POINT('',(-4.65,0.0,2.4));
#338=DIRECTION('',(-0.771373278540077,0.0,0.636382954795564));
#339=DIRECTION('',(0.636382954795564,0.0,0.771373278540077));
#340=AXIS2_PLACEMENT_3D('',#337,#338,#339);
#341=PLANE('',#340);
#342=CARTESIAN_POINT('',(-4.65,0.0,2.4));
#343=VERTEX_POINT('',#342);
#344=CARTESIAN_POINT('',(-4.65,0.0,2.4));
#345=DIRECTION('',(0.636382954795563,0.0,0.771373278540078));
#346=VECTOR('',#345,2.592778432492836);
#347=LINE('',#344,#346);
#348=EDGE_CURVE('',#343,#185,#347,.T.);
#349=ORIENTED_EDGE('',*,*,#348,.T.);
#350=ORIENTED_EDGE('',*,*,#214,.T.);
#351=CARTESIAN_POINT('',(-4.65,10.0,2.4));
#352=VERTEX_POINT('',#351);
#353=CARTESIAN_POINT('',(-4.65,10.0,2.4));
#354=DIRECTION('',(0.636382954795563,0.0,0.771373278540078));
#355=VECTOR('',#354,2.592778432492836);
#356=LINE('',#353,#355);
#357=EDGE_CURVE('',#352,#203,#356,.T.);
#358=ORIENTED_EDGE('',*,*,#357,.F.);
#359=CARTESIAN_POINT('',(-4.65,0.0,2.4));
#360=DIRECTION('',(0.0,1.0,0.0));
#361=VECTOR('',#360,10.0);
#362=LINE('',#359,#361);
#363=EDGE_CURVE('',#343,#352,#362,.T.);
#364=ORIENTED_EDGE('',*,*,#363,.F.);
#365=EDGE_LOOP('',(#349,#350,#358,#364));
#366=FACE_OUTER_BOUND('',#365,.T.);
#367=ADVANCED_FACE('',(#366),#341,.T.);
#368=CARTESIAN_POINT('',(-4.65,0.0,1.4));
#369=DIRECTION('',(-1.0,0.0,0.0));
#370=DIRECTION('',(0.0,0.0,1.0));
#371=AXIS2_PLACEMENT_3D('',#368,#369,#370);
#372=PLANE('',#371);
#373=CARTESIAN_POINT('',(-4.65,0.0,1.4));
#374=VERTEX_POINT('',#373);
#375=CARTESIAN_POINT('',(-4.65,0.0,1.4));
#376=DIRECTION('',(0.0,0.0,1.0));
#377=VECTOR('',#376,1.0);
#378=LINE('',#375,#377);
#379=EDGE_CURVE('',#374,#343,#378,.T.);
#380=ORIENTED_EDGE('',*,*,#379,.T.);
#381=ORIENTED_EDGE('',*,*,#363,.T.);
#382=CARTESIAN_POINT('',(-4.65,10.0,1.4));
#383=VERTEX_POINT('',#382);
#384=CARTESIAN_POINT('',(-4.65,10.0,1.4));
#385=DIRECTION('',(0.0,0.0,1.0));
#386=VECTOR('',#385,1.0);
#387=LINE('',#384,#386);
#388=EDGE_CURVE('',#383,#352,#387,.T.);
#389=ORIENTED_EDGE('',*,*,#388,.F.);
#390=CARTESIAN_POINT('',(-4.65,0.0,1.4));
#391=DIRECTION('',(0.0,1.0,0.0));
#392=VECTOR('',#391,10.0);
#393=LINE('',#390,#392);
#394=EDGE_CURVE('',#374,#383,#393,.T.);
#395=ORIENTED_EDGE('',*,*,#394,.F.);
#396=EDGE_LOOP('',(#380,#381,#389,#395));
#397=FACE_OUTER_BOUND('',#396,.T.);
#398=ADVANCED_FACE('',(#397),#372,.T.);
#399=CARTESIAN_POINT('',(-3.0,0.0,1.4));
#400=DIRECTION('',(0.0,0.0,-1.0));
#401=DIRECTION('',(-1.0,0.0,0.0));
#402=AXIS2_PLACEMENT_3D('',#399,#400,#401);
#403=PLANE('',#402);
#404=CARTESIAN_POINT('',(-3.0,0.0,1.4));
#405=VERTEX_POINT('',#404);
#406=CARTESIAN_POINT('',(-3.0,0.0,1.4));
#407=DIRECTION('',(-1.0,0.0,0.0));
#408=VECTOR('',#407,1.65);
#409=LINE('',#406,#408);
#410=EDGE_CURVE('',#405,#374,#409,.T.);
#411=ORIENTED_EDGE('',*,*,#410,.T.);
#412=ORIENTED_EDGE('',*,*,#394,.T.);
#413=CARTESIAN_POINT('',(-3.0,10.0,1.4));
#414=VERTEX_POINT('',#413);
#415=CARTESIAN_POINT('',(-3.0,10.0,1.4));
#416=DIRECTION('',(-1.0,0.0,0.0));
#417=VECTOR('',#416,1.65);
#418=LINE('',#415,#417);
#419=EDGE_CURVE('',#414,#383,#418,.T.);
#420=ORIENTED_EDGE('',*,*,#419,.F.);
#421=CARTESIAN_POINT('',(-3.0,0.0,1.4));
#422=DIRECTION('',(0.0,1.0,0.0));
#423=VECTOR('',#422,10.0);
#424=LINE('',#421,#423);
#425=EDGE_CURVE('',#405,#414,#424,.T.);
#426=ORIENTED_EDGE('',*,*,#425,.F.);
#427=EDGE_LOOP('',(#411,#412,#420,#426));
#428=FACE_OUTER_BOUND('',#427,.T.);
#429=ADVANCED_FACE('',(#428),#403,.T.);
#430=CARTESIAN_POINT('',(-3.0,0.0,0.0));
#431=DIRECTION('',(-1.0,0.0,0.0));
#432=DIRECTION('',(0.0,0.0,1.0));
#433=AXIS2_PLACEMENT_3D('',#430,#431,#432);
#434=PLANE('',#433);
#435=CARTESIAN_POINT('',(-3.0,0.0,0.0));
#436=DIRECTION('',(0.0,0.0,1.0));
#437=VECTOR('',#436,1.4);
#438=LINE('',#435,#437);
#439=EDGE_CURVE('',#124,#405,#438,.T.);
#440=ORIENTED_EDGE('',*,*,#439,.T.);
#441=ORIENTED_EDGE('',*,*,#425,.T.);
#442=CARTESIAN_POINT('',(-3.0,10.0,0.0));
#443=DIRECTION('',(0.0,0.0,1.0));
#444=VECTOR('',#443,1.4);
#445=LINE('',#442,#444);
#446=EDGE_CURVE('',#132,#414,#445,.T.);
#447=ORIENTED_EDGE('',*,*,#446,.F.);
#448=ORIENTED_EDGE('',*,*,#137,.F.);
#449=EDGE_LOOP('',(#440,#441,#447,#448));
#450=FACE_OUTER_BOUND('',#449,.T.);
#451=ADVANCED_FACE('',(#450),#434,.T.);
#452=CARTESIAN_POINT('',(-1.999593413672071,10.0,2.16428599459768));
#453=DIRECTION('',(0.0,-1.0,0.0));
#454=DIRECTION('',(0.0,0.0,-1.0));
#455=AXIS2_PLACEMENT_3D('',#452,#453,#454);
#456=PLANE('',#455);
#457=ORIENTED_EDGE('',*,*,#145,.T.);
#458=ORIENTED_EDGE('',*,*,#446,.T.);
#459=ORIENTED_EDGE('',*,*,#419,.T.);
#460=ORIENTED_EDGE('',*,*,#388,.T.);
#461=ORIENTED_EDGE('',*,*,#357,.T.);
#462=ORIENTED_EDGE('',*,*,#208,.T.);
#463=ORIENTED_EDGE('',*,*,#331,.T.);
#464=ORIENTED_EDGE('',*,*,#304,.T.);
#465=ORIENTED_EDGE('',*,*,#273,.T.);
#466=ORIENTED_EDGE('',*,*,#242,.T.);
#467=EDGE_LOOP('',(#457,#458,#459,#460,#461,#462,#463,#464,#465,#466));
#468=FACE_OUTER_BOUND('',#467,.T.);
#469=ADVANCED_FACE('',(#468),#456,.F.);
#470=CARTESIAN_POINT('',(-1.999593413672071,0.0,2.16428599459768));
#471=DIRECTION('',(0.0,-1.0,0.0));
#472=DIRECTION('',(0.0,0.0,-1.0));
#473=AXIS2_PLACEMENT_3D('',#470,#471,#472);
#474=PLANE('',#473);
#475=ORIENTED_EDGE('',*,*,#129,.F.);
#476=ORIENTED_EDGE('',*,*,#233,.F.);
#477=ORIENTED_EDGE('',*,*,#264,.F.);
#478=ORIENTED_EDGE('',*,*,#295,.F.);
#479=ORIENTED_EDGE('',*,*,#324,.F.);
#480=ORIENTED_EDGE('',*,*,#192,.F.);
#481=ORIENTED_EDGE('',*,*,#348,.F.);
#482=ORIENTED_EDGE('',*,*,#379,.F.);
#483=ORIENTED_EDGE('',*,*,#410,.F.);
#484=ORIENTED_EDGE('',*,*,#439,.F.);
#485=EDGE_LOOP('',(#475,#476,#477,#478,#479,#480,#481,#482,#483,#484));
#486=FACE_OUTER_BOUND('',#485,.T.);
#487=ADVANCED_FACE('',(#486),#474,.T.);
#488=CLOSED_SHELL('',(#95,#115,#158,#178,#221,#252,#283,#314,#336,#367,#398,#429,#451,#469,#487));
#489=MANIFOLD_SOLID_BREP('Bry\X2\0142\X0\a1',#488);
#490=COLOUR_RGB('Domy\X2\FFFD\X0\lna',0.75,0.75,0.75);
#491=FILL_AREA_STYLE_COLOUR('Domy\X2\FFFD\X0\lna',#490);
#492=FILL_AREA_STYLE('Domy\X2\FFFD\X0\lna',(#491));
#493=SURFACE_STYLE_FILL_AREA(#492);
#494=SURFACE_SIDE_STYLE('Domy\X2\FFFD\X0\lna',(#493));
#495=SURFACE_STYLE_USAGE(.BOTH.,#494);
#496=PRESENTATION_STYLE_ASSIGNMENT((#495));
#497=STYLED_ITEM('',(#496),#489);
#498=MECHANICAL_DESIGN_GEOMETRIC_PRESENTATION_REPRESENTATION('',(#497),#36);
#499=ADVANCED_BREP_SHAPE_REPRESENTATION('ABSR',(#489),#36);
#500=SHAPE_REPRESENTATION_RELATIONSHIP('SRR','None',#499,#41);
ENDSEC;
END-ISO-10303-21;
