ISO-10303-21;
HEADER;
/****************************************************************
 * Generated by software with PDElib inside                    *
 * PDElib Version v51a, created Wed 11/30/2011                  *
 * ITI Transcendata (http://www.transcendata.com/)              *
 ****************************************************************/
FILE_DESCRIPTION((''),'2;1');
FILE_NAME('\\\\WIN\\Rysunki\\Modele 3D\\System profili aluminiowych\\AR3829.stp','2018-05-29T15:30:05',('Konstruktor II'),(''),'Autodesk Inventor 2013','Autodesk Inventor 2013','');
FILE_SCHEMA(('AUTOMOTIVE_DESIGN { 1 0 10303 214 1 1 1 1 }'));
ENDSEC;
DATA;
#5=APPLICATION_CONTEXT('automotive design');
#6=APPLICATION_PROTOCOL_DEFINITION('International Standard','automotive_design',2001,#5);
#7=PRODUCT_CONTEXT('',#5,'mechanical');
#8=PRODUCT('AR3829','AR3829',$,(#7));
#9=PRODUCT_RELATED_PRODUCT_CATEGORY('part',$,(#8));
#10=PRODUCT_DEFINITION_FORMATION('',$,#8);
#11=PRODUCT_DEFINITION_CONTEXT('part definition',#5,'design');
#12=PRODUCT_DEFINITION('',$,#10,#11);
#18=(NAMED_UNIT(*)PLANE_ANGLE_UNIT()SI_UNIT($,.RADIAN.));
#19=DIMENSIONAL_EXPONENTS(0.0,0.0,0.0,0.0,0.0,0.0,0.0);
#20=PLANE_ANGLE_MEASURE_WITH_UNIT(PLANE_ANGLE_MEASURE(0.0174532925),#18);
#24=(CONVERSION_BASED_UNIT('DEGREE',#20)NAMED_UNIT(#19)PLANE_ANGLE_UNIT());
#28=(NAMED_UNIT(*)SI_UNIT($,.STERADIAN.)SOLID_ANGLE_UNIT());
#32=(LENGTH_UNIT()NAMED_UNIT(*)SI_UNIT(.MILLI.,.METRE.));
#34=UNCERTAINTY_MEASURE_WITH_UNIT(LENGTH_MEASURE(0.01),#32,'DISTANCE_ACCURACY_VALUE','');
#36=(GEOMETRIC_REPRESENTATION_CONTEXT(3)GLOBAL_UNCERTAINTY_ASSIGNED_CONTEXT((#34))GLOBAL_UNIT_ASSIGNED_CONTEXT((#24,#28,#32))REPRESENTATION_CONTEXT('None','None'));
#37=AXIS2_PLACEMENT_3D('',#38,#39,#40);
#38=CARTESIAN_POINT('',(0.0,0.0,0.0));
#39=DIRECTION('',(0.0,0.0,1.0));
#40=DIRECTION('',(1.0,0.0,0.0));
#41=SHAPE_REPRESENTATION('',(#37),#36);
#42=PRODUCT_DEFINITION_SHAPE('','',#12);
#43=SHAPE_DEFINITION_REPRESENTATION(#42,#41);
#49=(NAMED_UNIT(*)PLANE_ANGLE_UNIT()SI_UNIT($,.RADIAN.));
#50=DIMENSIONAL_EXPONENTS(0.0,0.0,0.0,0.0,0.0,0.0,0.0);
#51=PLANE_ANGLE_MEASURE_WITH_UNIT(PLANE_ANGLE_MEASURE(0.0174532925),#49);
#55=(CONVERSION_BASED_UNIT('DEGREE',#51)NAMED_UNIT(#50)PLANE_ANGLE_UNIT());
#59=(NAMED_UNIT(*)SI_UNIT($,.STERADIAN.)SOLID_ANGLE_UNIT());
#63=(LENGTH_UNIT()NAMED_UNIT(*)SI_UNIT(.MILLI.,.METRE.));
#65=UNCERTAINTY_MEASURE_WITH_UNIT(LENGTH_MEASURE(0.000001),#63,'DISTANCE_ACCURACY_VALUE','');
#67=(GEOMETRIC_REPRESENTATION_CONTEXT(3)GLOBAL_UNCERTAINTY_ASSIGNED_CONTEXT((#65))GLOBAL_UNIT_ASSIGNED_CONTEXT((#55,#59,#63))REPRESENTATION_CONTEXT('','3D'));
#68=CARTESIAN_POINT('',(7.000000000000001,-0.999999999999997,0.0));
#69=DIRECTION('',(1.0,0.0,0.0));
#70=DIRECTION('',(0.0,1.0,0.0));
#71=AXIS2_PLACEMENT_3D('',#68,#69,#70);
#72=PLANE('',#71);
#73=CARTESIAN_POINT('',(7.000000000000001,0.0,0.0));
#74=VERTEX_POINT('',#73);
#75=CARTESIAN_POINT('',(7.000000000000001,-0.999999999999997,0.0));
#76=VERTEX_POINT('',#75);
#77=CARTESIAN_POINT('',(7.000000000000001,0.0,0.0));
#78=DIRECTION('',(0.0,-1.0,0.0));
#79=VECTOR('',#78,0.999999999999997);
#80=LINE('',#77,#79);
#81=EDGE_CURVE('',#74,#76,#80,.T.);
#82=ORIENTED_EDGE('',*,*,#81,.F.);
#83=CARTESIAN_POINT('',(7.000000000000001,0.0,2000.0));
#84=VERTEX_POINT('',#83);
#85=CARTESIAN_POINT('',(7.000000000000001,0.0,0.0));
#86=DIRECTION('',(0.0,0.0,1.0));
#87=VECTOR('',#86,2000.0);
#88=LINE('',#85,#87);
#89=EDGE_CURVE('',#74,#84,#88,.T.);
#90=ORIENTED_EDGE('',*,*,#89,.T.);
#91=CARTESIAN_POINT('',(7.000000000000001,-0.999999999999997,2000.0));
#92=VERTEX_POINT('',#91);
#93=CARTESIAN_POINT('',(7.000000000000001,-0.999999999999997,2000.0));
#94=DIRECTION('',(0.0,1.0,0.0));
#95=VECTOR('',#94,0.999999999999997);
#96=LINE('',#93,#95);
#97=EDGE_CURVE('',#92,#84,#96,.T.);
#98=ORIENTED_EDGE('',*,*,#97,.F.);
#99=CARTESIAN_POINT('',(7.000000000000001,-0.999999999999997,0.0));
#100=DIRECTION('',(0.0,0.0,1.0));
#101=VECTOR('',#100,2000.0);
#102=LINE('',#99,#101);
#103=EDGE_CURVE('',#76,#92,#102,.T.);
#104=ORIENTED_EDGE('',*,*,#103,.F.);
#105=EDGE_LOOP('',(#82,#90,#98,#104));
#106=FACE_OUTER_BOUND('',#105,.T.);
#107=ADVANCED_FACE('',(#106),#72,.T.);
#108=CARTESIAN_POINT('',(6.5,-1.0,0.0));
#109=DIRECTION('',(0.0,-1.0,0.0));
#110=DIRECTION('',(1.0,0.0,0.0));
#111=AXIS2_PLACEMENT_3D('',#108,#109,#110);
#112=PLANE('',#111);
#113=CARTESIAN_POINT('',(6.5,-1.0,0.0));
#114=VERTEX_POINT('',#113);
#115=CARTESIAN_POINT('',(7.000000000000001,-0.999999999999997,0.0));
#116=DIRECTION('',(-1.0,0.0,0.0));
#117=VECTOR('',#116,0.500000000000001);
#118=LINE('',#115,#117);
#119=EDGE_CURVE('',#76,#114,#118,.T.);
#120=ORIENTED_EDGE('',*,*,#119,.F.);
#121=ORIENTED_EDGE('',*,*,#103,.T.);
#122=CARTESIAN_POINT('',(6.5,-1.0,2000.0));
#123=VERTEX_POINT('',#122);
#124=CARTESIAN_POINT('',(6.5,-1.0,2000.0));
#125=DIRECTION('',(1.0,0.0,0.0));
#126=VECTOR('',#125,0.500000000000001);
#127=LINE('',#124,#126);
#128=EDGE_CURVE('',#123,#92,#127,.T.);
#129=ORIENTED_EDGE('',*,*,#128,.F.);
#130=CARTESIAN_POINT('',(6.5,-1.0,0.0));
#131=DIRECTION('',(0.0,0.0,1.0));
#132=VECTOR('',#131,2000.0);
#133=LINE('',#130,#132);
#134=EDGE_CURVE('',#114,#123,#133,.T.);
#135=ORIENTED_EDGE('',*,*,#134,.F.);
#136=EDGE_LOOP('',(#120,#121,#129,#135));
#137=FACE_OUTER_BOUND('',#136,.T.);
#138=ADVANCED_FACE('',(#137),#112,.T.);
#139=CARTESIAN_POINT('',(2.749999999999999,-3.0,0.0));
#140=DIRECTION('',(0.0,0.0,1.0));
#141=DIRECTION('',(-0.882352941176471,0.470588235294117,0.0));
#142=AXIS2_PLACEMENT_3D('',#139,#140,#141);
#143=CYLINDRICAL_SURFACE('',#142,4.250000000000001);
#144=CARTESIAN_POINT('',(6.500000000000002,-5.0,0.0));
#145=VERTEX_POINT('',#144);
#146=CARTESIAN_POINT('',(2.749999999999999,-3.0,0.0));
#147=DIRECTION('',(0.0,0.0,-1.0));
#148=DIRECTION('',(-0.882352941176471,0.470588235294117,0.0));
#149=AXIS2_PLACEMENT_3D('',#146,#147,#148);
#150=CIRCLE('',#149,4.25);
#151=EDGE_CURVE('',#114,#145,#150,.T.);
#152=ORIENTED_EDGE('',*,*,#151,.F.);
#153=ORIENTED_EDGE('',*,*,#134,.T.);
#154=CARTESIAN_POINT('',(6.500000000000002,-5.0,2000.0));
#155=VERTEX_POINT('',#154);
#156=CARTESIAN_POINT('',(2.749999999999999,-3.0,2000.0));
#157=DIRECTION('',(0.0,0.0,1.0));
#158=DIRECTION('',(-0.882352941176471,0.470588235294117,0.0));
#159=AXIS2_PLACEMENT_3D('',#156,#157,#158);
#160=CIRCLE('',#159,4.25);
#161=EDGE_CURVE('',#155,#123,#160,.T.);
#162=ORIENTED_EDGE('',*,*,#161,.F.);
#163=CARTESIAN_POINT('',(6.500000000000002,-5.0,0.0));
#164=DIRECTION('',(0.0,0.0,1.0));
#165=VECTOR('',#164,2000.0);
#166=LINE('',#163,#165);
#167=EDGE_CURVE('',#145,#155,#166,.T.);
#168=ORIENTED_EDGE('',*,*,#167,.F.);
#169=EDGE_LOOP('',(#152,#153,#162,#168));
#170=FACE_OUTER_BOUND('',#169,.T.);
#171=ADVANCED_FACE('',(#170),#143,.T.);
#172=CARTESIAN_POINT('',(5.500000000000002,-5.0,0.0));
#173=DIRECTION('',(0.0,-1.0,0.0));
#174=DIRECTION('',(1.0,0.0,0.0));
#175=AXIS2_PLACEMENT_3D('',#172,#173,#174);
#176=PLANE('',#175);
#177=CARTESIAN_POINT('',(5.500000000000002,-5.0,0.0));
#178=VERTEX_POINT('',#177);
#179=CARTESIAN_POINT('',(6.500000000000002,-5.0,0.0));
#180=DIRECTION('',(-1.0,0.0,0.0));
#181=VECTOR('',#180,1.0);
#182=LINE('',#179,#181);
#183=EDGE_CURVE('',#145,#178,#182,.T.);
#184=ORIENTED_EDGE('',*,*,#183,.F.);
#185=ORIENTED_EDGE('',*,*,#167,.T.);
#186=CARTESIAN_POINT('',(5.500000000000002,-5.0,2000.0));
#187=VERTEX_POINT('',#186);
#188=CARTESIAN_POINT('',(5.500000000000002,-5.0,2000.0));
#189=DIRECTION('',(1.0,0.0,0.0));
#190=VECTOR('',#189,1.0);
#191=LINE('',#188,#190);
#192=EDGE_CURVE('',#187,#155,#191,.T.);
#193=ORIENTED_EDGE('',*,*,#192,.F.);
#194=CARTESIAN_POINT('',(5.500000000000002,-5.0,0.0));
#195=DIRECTION('',(0.0,0.0,1.0));
#196=VECTOR('',#195,2000.0);
#197=LINE('',#194,#196);
#198=EDGE_CURVE('',#178,#187,#197,.T.);
#199=ORIENTED_EDGE('',*,*,#198,.F.);
#200=EDGE_LOOP('',(#184,#185,#193,#199));
#201=FACE_OUTER_BOUND('',#200,.T.);
#202=ADVANCED_FACE('',(#201),#176,.T.);
#203=CARTESIAN_POINT('',(2.833333333333332,-3.0,0.0));
#204=DIRECTION('',(0.0,0.0,1.0));
#205=DIRECTION('',(0.8,-0.6,0.0));
#206=AXIS2_PLACEMENT_3D('',#203,#204,#205);
#207=CYLINDRICAL_SURFACE('',#206,3.333333333333335);
#208=CARTESIAN_POINT('',(5.5,-1.0,0.0));
#209=VERTEX_POINT('',#208);
#210=CARTESIAN_POINT('',(2.833333333333332,-3.0,0.0));
#211=DIRECTION('',(0.0,0.0,1.0));
#212=DIRECTION('',(0.8,-0.6,0.0));
#213=AXIS2_PLACEMENT_3D('',#210,#211,#212);
#214=CIRCLE('',#213,3.333333333333334);
#215=EDGE_CURVE('',#178,#209,#214,.T.);
#216=ORIENTED_EDGE('',*,*,#215,.F.);
#217=ORIENTED_EDGE('',*,*,#198,.T.);
#218=CARTESIAN_POINT('',(5.5,-1.0,2000.0));
#219=VERTEX_POINT('',#218);
#220=CARTESIAN_POINT('',(2.833333333333332,-3.0,2000.0));
#221=DIRECTION('',(0.0,0.0,-1.0));
#222=DIRECTION('',(0.8,-0.6,0.0));
#223=AXIS2_PLACEMENT_3D('',#220,#221,#222);
#224=CIRCLE('',#223,3.333333333333334);
#225=EDGE_CURVE('',#219,#187,#224,.T.);
#226=ORIENTED_EDGE('',*,*,#225,.F.);
#227=CARTESIAN_POINT('',(5.5,-1.0,0.0));
#228=DIRECTION('',(0.0,0.0,1.0));
#229=VECTOR('',#228,2000.0);
#230=LINE('',#227,#229);
#231=EDGE_CURVE('',#209,#219,#230,.T.);
#232=ORIENTED_EDGE('',*,*,#231,.F.);
#233=EDGE_LOOP('',(#216,#217,#226,#232));
#234=FACE_OUTER_BOUND('',#233,.T.);
#235=ADVANCED_FACE('',(#234),#207,.F.);
#236=CARTESIAN_POINT('',(1.5,-1.0,0.0));
#237=DIRECTION('',(0.0,-1.0,0.0));
#238=DIRECTION('',(1.0,0.0,0.0));
#239=AXIS2_PLACEMENT_3D('',#236,#237,#238);
#240=PLANE('',#239);
#241=CARTESIAN_POINT('',(1.5,-1.0,0.0));
#242=VERTEX_POINT('',#241);
#243=CARTESIAN_POINT('',(5.5,-1.0,0.0));
#244=DIRECTION('',(-1.0,0.0,0.0));
#245=VECTOR('',#244,4.0);
#246=LINE('',#243,#245);
#247=EDGE_CURVE('',#209,#242,#246,.T.);
#248=ORIENTED_EDGE('',*,*,#247,.F.);
#249=ORIENTED_EDGE('',*,*,#231,.T.);
#250=CARTESIAN_POINT('',(1.5,-1.0,2000.0));
#251=VERTEX_POINT('',#250);
#252=CARTESIAN_POINT('',(1.5,-1.0,2000.0));
#253=DIRECTION('',(1.0,0.0,0.0));
#254=VECTOR('',#253,4.0);
#255=LINE('',#252,#254);
#256=EDGE_CURVE('',#251,#219,#255,.T.);
#257=ORIENTED_EDGE('',*,*,#256,.F.);
#258=CARTESIAN_POINT('',(1.5,-1.0,0.0));
#259=DIRECTION('',(0.0,0.0,1.0));
#260=VECTOR('',#259,2000.0);
#261=LINE('',#258,#260);
#262=EDGE_CURVE('',#242,#251,#261,.T.);
#263=ORIENTED_EDGE('',*,*,#262,.F.);
#264=EDGE_LOOP('',(#248,#249,#257,#263));
#265=FACE_OUTER_BOUND('',#264,.T.);
#266=ADVANCED_FACE('',(#265),#240,.T.);
#267=CARTESIAN_POINT('',(4.166666666666669,-3.0,0.0));
#268=DIRECTION('',(0.0,0.0,1.0));
#269=DIRECTION('',(-0.8,0.6,0.0));
#270=AXIS2_PLACEMENT_3D('',#267,#268,#269);
#271=CYLINDRICAL_SURFACE('',#270,3.333333333333335);
#272=CARTESIAN_POINT('',(1.5,-5.0,0.0));
#273=VERTEX_POINT('',#272);
#274=CARTESIAN_POINT('',(4.166666666666669,-3.0,0.0));
#275=DIRECTION('',(0.0,0.0,1.0));
#276=DIRECTION('',(-0.8,0.6,0.0));
#277=AXIS2_PLACEMENT_3D('',#274,#275,#276);
#278=CIRCLE('',#277,3.333333333333335);
#279=EDGE_CURVE('',#242,#273,#278,.T.);
#280=ORIENTED_EDGE('',*,*,#279,.F.);
#281=ORIENTED_EDGE('',*,*,#262,.T.);
#282=CARTESIAN_POINT('',(1.5,-5.0,2000.0));
#283=VERTEX_POINT('',#282);
#284=CARTESIAN_POINT('',(4.166666666666669,-3.0,2000.0));
#285=DIRECTION('',(0.0,0.0,-1.0));
#286=DIRECTION('',(-0.8,0.6,0.0));
#287=AXIS2_PLACEMENT_3D('',#284,#285,#286);
#288=CIRCLE('',#287,3.333333333333335);
#289=EDGE_CURVE('',#283,#251,#288,.T.);
#290=ORIENTED_EDGE('',*,*,#289,.F.);
#291=CARTESIAN_POINT('',(1.5,-5.0,0.0));
#292=DIRECTION('',(0.0,0.0,1.0));
#293=VECTOR('',#292,2000.0);
#294=LINE('',#291,#293);
#295=EDGE_CURVE('',#273,#283,#294,.T.);
#296=ORIENTED_EDGE('',*,*,#295,.F.);
#297=EDGE_LOOP('',(#280,#281,#290,#296));
#298=FACE_OUTER_BOUND('',#297,.T.);
#299=ADVANCED_FACE('',(#298),#271,.F.);
#300=CARTESIAN_POINT('',(0.5,-5.0,0.0));
#301=DIRECTION('',(0.0,-1.0,0.0));
#302=DIRECTION('',(1.0,0.0,0.0));
#303=AXIS2_PLACEMENT_3D('',#300,#301,#302);
#304=PLANE('',#303);
#305=CARTESIAN_POINT('',(0.5,-5.0,0.0));
#306=VERTEX_POINT('',#305);
#307=CARTESIAN_POINT('',(1.5,-5.0,0.0));
#308=DIRECTION('',(-1.0,0.0,0.0));
#309=VECTOR('',#308,1.0);
#310=LINE('',#307,#309);
#311=EDGE_CURVE('',#273,#306,#310,.T.);
#312=ORIENTED_EDGE('',*,*,#311,.F.);
#313=ORIENTED_EDGE('',*,*,#295,.T.);
#314=CARTESIAN_POINT('',(0.5,-5.0,2000.0));
#315=VERTEX_POINT('',#314);
#316=CARTESIAN_POINT('',(0.5,-5.0,2000.0));
#317=DIRECTION('',(1.0,0.0,0.0));
#318=VECTOR('',#317,1.0);
#319=LINE('',#316,#318);
#320=EDGE_CURVE('',#315,#283,#319,.T.);
#321=ORIENTED_EDGE('',*,*,#320,.F.);
#322=CARTESIAN_POINT('',(0.5,-5.0,0.0));
#323=DIRECTION('',(0.0,0.0,1.0));
#324=VECTOR('',#323,2000.0);
#325=LINE('',#322,#324);
#326=EDGE_CURVE('',#306,#315,#325,.T.);
#327=ORIENTED_EDGE('',*,*,#326,.F.);
#328=EDGE_LOOP('',(#312,#313,#321,#327));
#329=FACE_OUTER_BOUND('',#328,.T.);
#330=ADVANCED_FACE('',(#329),#304,.T.);
#331=CARTESIAN_POINT('',(4.250000000000002,-3.0,0.0));
#332=DIRECTION('',(0.0,0.0,1.0));
#333=DIRECTION('',(0.882352941176471,-0.470588235294118,0.0));
#334=AXIS2_PLACEMENT_3D('',#331,#332,#333);
#335=CYLINDRICAL_SURFACE('',#334,4.250000000000001);
#336=CARTESIAN_POINT('',(0.5,-1.0,0.0));
#337=VERTEX_POINT('',#336);
#338=CARTESIAN_POINT('',(4.250000000000002,-3.0,0.0));
#339=DIRECTION('',(0.0,0.0,-1.0));
#340=DIRECTION('',(0.882352941176471,-0.470588235294118,0.0));
#341=AXIS2_PLACEMENT_3D('',#338,#339,#340);
#342=CIRCLE('',#341,4.25);
#343=EDGE_CURVE('',#306,#337,#342,.T.);
#344=ORIENTED_EDGE('',*,*,#343,.F.);
#345=ORIENTED_EDGE('',*,*,#326,.T.);
#346=CARTESIAN_POINT('',(0.5,-1.0,2000.0));
#347=VERTEX_POINT('',#346);
#348=CARTESIAN_POINT('',(4.250000000000002,-3.0,2000.0));
#349=DIRECTION('',(0.0,0.0,1.0));
#350=DIRECTION('',(0.882352941176471,-0.470588235294118,0.0));
#351=AXIS2_PLACEMENT_3D('',#348,#349,#350);
#352=CIRCLE('',#351,4.25);
#353=EDGE_CURVE('',#347,#315,#352,.T.);
#354=ORIENTED_EDGE('',*,*,#353,.F.);
#355=CARTESIAN_POINT('',(0.5,-1.0,0.0));
#356=DIRECTION('',(0.0,0.0,1.0));
#357=VECTOR('',#356,2000.0);
#358=LINE('',#355,#357);
#359=EDGE_CURVE('',#337,#347,#358,.T.);
#360=ORIENTED_EDGE('',*,*,#359,.F.);
#361=EDGE_LOOP('',(#344,#345,#354,#360));
#362=FACE_OUTER_BOUND('',#361,.T.);
#363=ADVANCED_FACE('',(#362),#335,.T.);
#364=CARTESIAN_POINT('',(2.775558E-016,-1.0,0.0));
#365=DIRECTION('',(0.0,-1.0,0.0));
#366=DIRECTION('',(1.0,0.0,0.0));
#367=AXIS2_PLACEMENT_3D('',#364,#365,#366);
#368=PLANE('',#367);
#369=CARTESIAN_POINT('',(3.061617E-016,-1.0,0.0));
#370=VERTEX_POINT('',#369);
#371=CARTESIAN_POINT('',(0.5,-1.0,0.0));
#372=DIRECTION('',(-1.0,0.0,0.0));
#373=VECTOR('',#372,0.5);
#374=LINE('',#371,#373);
#375=EDGE_CURVE('',#337,#370,#374,.T.);
#376=ORIENTED_EDGE('',*,*,#375,.F.);
#377=ORIENTED_EDGE('',*,*,#359,.T.);
#378=CARTESIAN_POINT('',(3.061617E-016,-1.0,2000.0));
#379=VERTEX_POINT('',#378);
#380=CARTESIAN_POINT('',(2.220446E-016,-1.0,2000.0));
#381=DIRECTION('',(1.0,0.0,0.0));
#382=VECTOR('',#381,0.5);
#383=LINE('',#380,#382);
#384=EDGE_CURVE('',#379,#347,#383,.T.);
#385=ORIENTED_EDGE('',*,*,#384,.F.);
#386=CARTESIAN_POINT('',(3.061617E-016,-1.0,0.0));
#387=DIRECTION('',(0.0,0.0,1.0));
#388=VECTOR('',#387,2000.0);
#389=LINE('',#386,#388);
#390=EDGE_CURVE('',#370,#379,#389,.T.);
#391=ORIENTED_EDGE('',*,*,#390,.F.);
#392=EDGE_LOOP('',(#376,#377,#385,#391));
#393=FACE_OUTER_BOUND('',#392,.T.);
#394=ADVANCED_FACE('',(#393),#368,.T.);
#395=CARTESIAN_POINT('',(-6.162976E-032,0.0,0.0));
#396=DIRECTION('',(-1.0,0.0,0.0));
#397=DIRECTION('',(0.0,-1.0,0.0));
#398=AXIS2_PLACEMENT_3D('',#395,#396,#397);
#399=PLANE('',#398);
#400=CARTESIAN_POINT('',(0.0,0.0,0.0));
#401=VERTEX_POINT('',#400);
#402=CARTESIAN_POINT('',(3.061617E-016,-1.0,0.0));
#403=DIRECTION('',(0.0,1.0,0.0));
#404=VECTOR('',#403,1.0);
#405=LINE('',#402,#404);
#406=EDGE_CURVE('',#370,#401,#405,.T.);
#407=ORIENTED_EDGE('',*,*,#406,.F.);
#408=ORIENTED_EDGE('',*,*,#390,.T.);
#409=CARTESIAN_POINT('',(0.0,0.0,2000.0));
#410=VERTEX_POINT('',#409);
#411=CARTESIAN_POINT('',(0.0,0.0,2000.0));
#412=DIRECTION('',(0.0,-1.0,0.0));
#413=VECTOR('',#412,1.0);
#414=LINE('',#411,#413);
#415=EDGE_CURVE('',#410,#379,#414,.T.);
#416=ORIENTED_EDGE('',*,*,#415,.F.);
#417=CARTESIAN_POINT('',(0.0,0.0,0.0));
#418=DIRECTION('',(0.0,0.0,1.0));
#419=VECTOR('',#418,2000.0);
#420=LINE('',#417,#419);
#421=EDGE_CURVE('',#401,#410,#420,.T.);
#422=ORIENTED_EDGE('',*,*,#421,.F.);
#423=EDGE_LOOP('',(#407,#408,#416,#422));
#424=FACE_OUTER_BOUND('',#423,.T.);
#425=ADVANCED_FACE('',(#424),#399,.T.);
#426=CARTESIAN_POINT('',(7.000000000000001,0.0,0.0));
#427=DIRECTION('',(0.0,1.0,0.0));
#428=DIRECTION('',(-1.0,0.0,0.0));
#429=AXIS2_PLACEMENT_3D('',#426,#427,#428);
#430=PLANE('',#429);
#431=CARTESIAN_POINT('',(0.0,0.0,0.0));
#432=DIRECTION('',(1.0,0.0,0.0));
#433=VECTOR('',#432,7.000000000000001);
#434=LINE('',#431,#433);
#435=EDGE_CURVE('',#401,#74,#434,.T.);
#436=ORIENTED_EDGE('',*,*,#435,.F.);
#437=ORIENTED_EDGE('',*,*,#421,.T.);
#438=CARTESIAN_POINT('',(7.000000000000001,0.0,2000.0));
#439=DIRECTION('',(-1.0,0.0,0.0));
#440=VECTOR('',#439,7.000000000000001);
#441=LINE('',#438,#440);
#442=EDGE_CURVE('',#84,#410,#441,.T.);
#443=ORIENTED_EDGE('',*,*,#442,.F.);
#444=ORIENTED_EDGE('',*,*,#89,.F.);
#445=EDGE_LOOP('',(#436,#437,#443,#444));
#446=FACE_OUTER_BOUND('',#445,.T.);
#447=ADVANCED_FACE('',(#446),#430,.T.);
#448=CARTESIAN_POINT('',(3.5,-1.884316406800067,2000.0));
#449=DIRECTION('',(0.0,0.0,1.0));
#450=DIRECTION('',(1.0,0.0,0.0));
#451=AXIS2_PLACEMENT_3D('',#448,#449,#450);
#452=PLANE('',#451);
#453=ORIENTED_EDGE('',*,*,#442,.T.);
#454=ORIENTED_EDGE('',*,*,#415,.T.);
#455=ORIENTED_EDGE('',*,*,#384,.T.);
#456=ORIENTED_EDGE('',*,*,#353,.T.);
#457=ORIENTED_EDGE('',*,*,#320,.T.);
#458=ORIENTED_EDGE('',*,*,#289,.T.);
#459=ORIENTED_EDGE('',*,*,#256,.T.);
#460=ORIENTED_EDGE('',*,*,#225,.T.);
#461=ORIENTED_EDGE('',*,*,#192,.T.);
#462=ORIENTED_EDGE('',*,*,#161,.T.);
#463=ORIENTED_EDGE('',*,*,#128,.T.);
#464=ORIENTED_EDGE('',*,*,#97,.T.);
#465=EDGE_LOOP('',(#453,#454,#455,#456,#457,#458,#459,#460,#461,#462,#463,#464));
#466=FACE_OUTER_BOUND('',#465,.T.);
#467=ADVANCED_FACE('',(#466),#452,.T.);
#468=CARTESIAN_POINT('',(3.5,-1.884316406800067,0.0));
#469=DIRECTION('',(0.0,0.0,1.0));
#470=DIRECTION('',(1.0,0.0,0.0));
#471=AXIS2_PLACEMENT_3D('',#468,#469,#470);
#472=PLANE('',#471);
#473=ORIENTED_EDGE('',*,*,#435,.T.);
#474=ORIENTED_EDGE('',*,*,#81,.T.);
#475=ORIENTED_EDGE('',*,*,#119,.T.);
#476=ORIENTED_EDGE('',*,*,#151,.T.);
#477=ORIENTED_EDGE('',*,*,#183,.T.);
#478=ORIENTED_EDGE('',*,*,#215,.T.);
#479=ORIENTED_EDGE('',*,*,#247,.T.);
#480=ORIENTED_EDGE('',*,*,#279,.T.);
#481=ORIENTED_EDGE('',*,*,#311,.T.);
#482=ORIENTED_EDGE('',*,*,#343,.T.);
#483=ORIENTED_EDGE('',*,*,#375,.T.);
#484=ORIENTED_EDGE('',*,*,#406,.T.);
#485=EDGE_LOOP('',(#473,#474,#475,#476,#477,#478,#479,#480,#481,#482,#483,#484));
#486=FACE_OUTER_BOUND('',#485,.T.);
#487=ADVANCED_FACE('',(#486),#472,.F.);
#488=CLOSED_SHELL('',(#107,#138,#171,#202,#235,#266,#299,#330,#363,#394,#425,#447,#467,#487));
#489=MANIFOLD_SOLID_BREP('Bry\X2\0142\X0\a1',#488);
#490=COLOUR_RGB('G\X2\FFFD\X0\adkie \X2\FFFD\X0\ czarne',0.019999999552965,0.019999999552965,0.019999999552965);
#491=FILL_AREA_STYLE_COLOUR('G\X2\FFFD\X0\adkie \X2\FFFD\X0\ czarne',#490);
#492=FILL_AREA_STYLE('G\X2\FFFD\X0\adkie \X2\FFFD\X0\ czarne',(#491));
#493=SURFACE_STYLE_FILL_AREA(#492);
#494=SURFACE_SIDE_STYLE('G\X2\FFFD\X0\adkie \X2\FFFD\X0\ czarne',(#493));
#495=SURFACE_STYLE_USAGE(.BOTH.,#494);
#496=PRESENTATION_STYLE_ASSIGNMENT((#495));
#497=STYLED_ITEM('',(#496),#489);
#498=MECHANICAL_DESIGN_GEOMETRIC_PRESENTATION_REPRESENTATION('',(#497),#36);
#499=ADVANCED_BREP_SHAPE_REPRESENTATION('ABSR',(#489),#36);
#500=SHAPE_REPRESENTATION_RELATIONSHIP('SRR','None',#499,#41);
ENDSEC;
END-ISO-10303-21;
