ISO-10303-21;
HEADER;
/****************************************************************
 * Generated by software with PDElib inside                    *
 * PDElib Version v51a, created Wed 11/30/2011                  *
 * ITI Transcendata (http://www.transcendata.com/)              *
 ****************************************************************/
FILE_DESCRIPTION((''),'2;1');
FILE_NAME('\\\\SRV-DC01\\Rysunki\\Rysunki katalog\\KATALOG\\System profili\\AR3617\\AR3617.stp','2021-08-10T10:37:16',('arma01'),(''),'Autodesk Inventor 2013','Autodesk Inventor 2013','');
FILE_SCHEMA(('AUTOMOTIVE_DESIGN { 1 0 10303 214 1 1 1 1 }'));
ENDSEC;
DATA;
#5=APPLICATION_CONTEXT('automotive design');
#6=APPLICATION_PROTOCOL_DEFINITION('International Standard','automotive_design',2001,#5);
#7=PRODUCT_CONTEXT('',#5,'mechanical');
#8=PRODUCT('AR3617','AR3617',$,(#7));
#9=PRODUCT_RELATED_PRODUCT_CATEGORY('part',$,(#8));
#10=PRODUCT_DEFINITION_FORMATION('',$,#8);
#11=PRODUCT_DEFINITION_CONTEXT('part definition',#5,'design');
#12=PRODUCT_DEFINITION('',$,#10,#11);
#18=(NAMED_UNIT(*)PLANE_ANGLE_UNIT()SI_UNIT($,.RADIAN.));
#19=DIMENSIONAL_EXPONENTS(0.0,0.0,0.0,0.0,0.0,0.0,0.0);
#20=PLANE_ANGLE_MEASURE_WITH_UNIT(PLANE_ANGLE_MEASURE(0.0174532925),#18);
#24=(CONVERSION_BASED_UNIT('DEGREE',#20)NAMED_UNIT(#19)PLANE_ANGLE_UNIT());
#28=(NAMED_UNIT(*)SI_UNIT($,.STERADIAN.)SOLID_ANGLE_UNIT());
#32=(LENGTH_UNIT()NAMED_UNIT(*)SI_UNIT(.MILLI.,.METRE.));
#34=UNCERTAINTY_MEASURE_WITH_UNIT(LENGTH_MEASURE(0.01),#32,'DISTANCE_ACCURACY_VALUE','');
#36=(GEOMETRIC_REPRESENTATION_CONTEXT(3)GLOBAL_UNCERTAINTY_ASSIGNED_CONTEXT((#34))GLOBAL_UNIT_ASSIGNED_CONTEXT((#24,#28,#32))REPRESENTATION_CONTEXT('None','None'));
#37=AXIS2_PLACEMENT_3D('',#38,#39,#40);
#38=CARTESIAN_POINT('',(0.0,0.0,0.0));
#39=DIRECTION('',(0.0,0.0,1.0));
#40=DIRECTION('',(1.0,0.0,0.0));
#41=SHAPE_REPRESENTATION('',(#37),#36);
#42=PRODUCT_DEFINITION_SHAPE('','',#12);
#43=SHAPE_DEFINITION_REPRESENTATION(#42,#41);
#49=(NAMED_UNIT(*)PLANE_ANGLE_UNIT()SI_UNIT($,.RADIAN.));
#50=DIMENSIONAL_EXPONENTS(0.0,0.0,0.0,0.0,0.0,0.0,0.0);
#51=PLANE_ANGLE_MEASURE_WITH_UNIT(PLANE_ANGLE_MEASURE(0.0174532925),#49);
#55=(CONVERSION_BASED_UNIT('DEGREE',#51)NAMED_UNIT(#50)PLANE_ANGLE_UNIT());
#59=(NAMED_UNIT(*)SI_UNIT($,.STERADIAN.)SOLID_ANGLE_UNIT());
#63=(LENGTH_UNIT()NAMED_UNIT(*)SI_UNIT(.MILLI.,.METRE.));
#65=UNCERTAINTY_MEASURE_WITH_UNIT(LENGTH_MEASURE(0.000001),#63,'DISTANCE_ACCURACY_VALUE','');
#67=(GEOMETRIC_REPRESENTATION_CONTEXT(3)GLOBAL_UNCERTAINTY_ASSIGNED_CONTEXT((#65))GLOBAL_UNIT_ASSIGNED_CONTEXT((#55,#59,#63))REPRESENTATION_CONTEXT('','3D'));
#68=CARTESIAN_POINT('',(-0.05,-0.086602540378444,0.0));
#69=DIRECTION('',(0.0,0.0,-1.0));
#70=DIRECTION('',(0.5,0.866025403784439,0.0));
#71=AXIS2_PLACEMENT_3D('',#68,#69,#70);
#72=CYLINDRICAL_SURFACE('',#71,0.1);
#73=CARTESIAN_POINT('',(0.05,-0.086602540378444,0.0));
#74=VERTEX_POINT('',#73);
#75=CARTESIAN_POINT('',(0.0,0.0,0.0));
#76=VERTEX_POINT('',#75);
#77=CARTESIAN_POINT('',(-0.05,-0.086602540378444,0.0));
#78=DIRECTION('',(0.0,0.0,-1.0));
#79=DIRECTION('',(0.5,0.866025403784439,0.0));
#80=AXIS2_PLACEMENT_3D('',#77,#78,#79);
#81=CIRCLE('',#80,0.1);
#82=EDGE_CURVE('',#74,#76,#81,.F.);
#83=ORIENTED_EDGE('',*,*,#82,.F.);
#84=CARTESIAN_POINT('',(0.05,-0.086602540378444,2000.0));
#85=VERTEX_POINT('',#84);
#86=CARTESIAN_POINT('',(0.05,-0.086602540378444,0.0));
#87=DIRECTION('',(0.0,0.0,1.0));
#88=VECTOR('',#87,2000.0);
#89=LINE('',#86,#88);
#90=EDGE_CURVE('',#74,#85,#89,.T.);
#91=ORIENTED_EDGE('',*,*,#90,.T.);
#92=CARTESIAN_POINT('',(0.0,0.0,2000.0));
#93=VERTEX_POINT('',#92);
#94=CARTESIAN_POINT('',(-0.05,-0.086602540378444,2000.0));
#95=DIRECTION('',(0.0,0.0,1.0));
#96=DIRECTION('',(0.5,0.866025403784439,0.0));
#97=AXIS2_PLACEMENT_3D('',#94,#95,#96);
#98=CIRCLE('',#97,0.1);
#99=EDGE_CURVE('',#85,#93,#98,.T.);
#100=ORIENTED_EDGE('',*,*,#99,.T.);
#101=CARTESIAN_POINT('',(0.0,0.0,0.0));
#102=DIRECTION('',(0.0,0.0,1.0));
#103=VECTOR('',#102,2000.0);
#104=LINE('',#101,#103);
#105=EDGE_CURVE('',#76,#93,#104,.T.);
#106=ORIENTED_EDGE('',*,*,#105,.F.);
#107=EDGE_LOOP('',(#83,#91,#100,#106));
#108=FACE_OUTER_BOUND('',#107,.T.);
#109=ADVANCED_FACE('',(#108),#72,.F.);
#110=CARTESIAN_POINT('',(8.550000000000001,-0.086602540378444,0.0));
#111=DIRECTION('',(0.0,0.0,1.0));
#112=DIRECTION('',(-0.5,0.866025403784438,0.0));
#113=AXIS2_PLACEMENT_3D('',#110,#111,#112);
#114=CYLINDRICAL_SURFACE('',#113,0.1);
#115=CARTESIAN_POINT('',(8.450000000000001,-0.086602540378444,2000.0));
#116=VERTEX_POINT('',#115);
#117=CARTESIAN_POINT('',(8.5,0.0,2000.0));
#118=VERTEX_POINT('',#117);
#119=CARTESIAN_POINT('',(8.550000000000001,-0.086602540378444,2000.0));
#120=DIRECTION('',(0.0,0.0,1.0));
#121=DIRECTION('',(-0.5,0.866025403784438,0.0));
#122=AXIS2_PLACEMENT_3D('',#119,#120,#121);
#123=CIRCLE('',#122,0.1);
#124=EDGE_CURVE('',#116,#118,#123,.F.);
#125=ORIENTED_EDGE('',*,*,#124,.F.);
#126=CARTESIAN_POINT('',(8.450000000000001,-0.086602540378444,0.0));
#127=VERTEX_POINT('',#126);
#128=CARTESIAN_POINT('',(8.450000000000001,-0.086602540378444,2000.0));
#129=DIRECTION('',(0.0,0.0,-1.0));
#130=VECTOR('',#129,2000.0);
#131=LINE('',#128,#130);
#132=EDGE_CURVE('',#116,#127,#131,.T.);
#133=ORIENTED_EDGE('',*,*,#132,.T.);
#134=CARTESIAN_POINT('',(8.5,0.0,0.0));
#135=VERTEX_POINT('',#134);
#136=CARTESIAN_POINT('',(8.550000000000001,-0.086602540378444,0.0));
#137=DIRECTION('',(0.0,0.0,-1.0));
#138=DIRECTION('',(-0.5,0.866025403784438,0.0));
#139=AXIS2_PLACEMENT_3D('',#136,#137,#138);
#140=CIRCLE('',#139,0.1);
#141=EDGE_CURVE('',#127,#135,#140,.T.);
#142=ORIENTED_EDGE('',*,*,#141,.T.);
#143=CARTESIAN_POINT('',(8.5,0.0,0.0));
#144=DIRECTION('',(0.0,0.0,1.0));
#145=VECTOR('',#144,2000.0);
#146=LINE('',#143,#145);
#147=EDGE_CURVE('',#135,#118,#146,.T.);
#148=ORIENTED_EDGE('',*,*,#147,.T.);
#149=EDGE_LOOP('',(#125,#133,#142,#148));
#150=FACE_OUTER_BOUND('',#149,.T.);
#151=ADVANCED_FACE('',(#150),#114,.F.);
#152=CARTESIAN_POINT('',(8.400000000000002,-2.045685025174787,0.0));
#153=DIRECTION('',(0.0,0.0,1.0));
#154=DIRECTION('',(0.935414346693483,0.353553390593279,0.0));
#155=AXIS2_PLACEMENT_3D('',#152,#153,#154);
#156=CYLINDRICAL_SURFACE('',#155,0.1);
#157=CARTESIAN_POINT('',(8.475000000000001,-1.979541242398171,2000.0));
#158=VERTEX_POINT('',#157);
#159=CARTESIAN_POINT('',(8.500000000000002,-2.045685025174787,2000.0));
#160=VERTEX_POINT('',#159);
#161=CARTESIAN_POINT('',(8.400000000000002,-2.045685025174787,2000.0));
#162=DIRECTION('',(0.0,0.0,-1.0));
#163=DIRECTION('',(0.935414346693483,0.353553390593279,0.0));
#164=AXIS2_PLACEMENT_3D('',#161,#162,#163);
#165=CIRCLE('',#164,0.1);
#166=EDGE_CURVE('',#158,#160,#165,.T.);
#167=ORIENTED_EDGE('',*,*,#166,.T.);
#168=CARTESIAN_POINT('',(8.500000000000002,-2.045685025174787,0.0));
#169=VERTEX_POINT('',#168);
#170=CARTESIAN_POINT('',(8.500000000000002,-2.045685025174787,2000.0));
#171=DIRECTION('',(0.0,0.0,-1.0));
#172=VECTOR('',#171,2000.0);
#173=LINE('',#170,#172);
#174=EDGE_CURVE('',#160,#169,#173,.T.);
#175=ORIENTED_EDGE('',*,*,#174,.T.);
#176=CARTESIAN_POINT('',(8.475000000000001,-1.979541242398171,0.0));
#177=VERTEX_POINT('',#176);
#178=CARTESIAN_POINT('',(8.400000000000002,-2.045685025174787,0.0));
#179=DIRECTION('',(0.0,0.0,1.0));
#180=DIRECTION('',(0.935414346693483,0.353553390593279,0.0));
#181=AXIS2_PLACEMENT_3D('',#178,#179,#180);
#182=CIRCLE('',#181,0.1);
#183=EDGE_CURVE('',#169,#177,#182,.T.);
#184=ORIENTED_EDGE('',*,*,#183,.T.);
#185=CARTESIAN_POINT('',(8.475000000000001,-1.979541242398171,0.0));
#186=DIRECTION('',(0.0,0.0,1.0));
#187=VECTOR('',#186,2000.0);
#188=LINE('',#185,#187);
#189=EDGE_CURVE('',#177,#158,#188,.T.);
#190=ORIENTED_EDGE('',*,*,#189,.T.);
#191=EDGE_LOOP('',(#167,#175,#184,#190));
#192=FACE_OUTER_BOUND('',#191,.T.);
#193=ADVANCED_FACE('',(#192),#156,.T.);
#194=CARTESIAN_POINT('',(4.25,0.05,2000.0));
#195=DIRECTION('',(0.0,0.0,1.0));
#196=DIRECTION('',(1.0,0.0,0.0));
#197=AXIS2_PLACEMENT_3D('',#194,#195,#196);
#198=PLANE('',#197);
#199=ORIENTED_EDGE('',*,*,#166,.F.);
#200=CARTESIAN_POINT('',(8.450000000000001,-1.913397459621556,2000.0));
#201=VERTEX_POINT('',#200);
#202=CARTESIAN_POINT('',(8.550000000000001,-1.913397459621556,2000.0));
#203=DIRECTION('',(0.0,0.0,1.0));
#204=DIRECTION('',(-0.499999999999989,-0.866025403784445,0.0));
#205=AXIS2_PLACEMENT_3D('',#202,#203,#204);
#206=CIRCLE('',#205,0.1);
#207=EDGE_CURVE('',#201,#158,#206,.T.);
#208=ORIENTED_EDGE('',*,*,#207,.F.);
#209=CARTESIAN_POINT('',(8.450000000000001,-1.913397459621556,2000.0));
#210=DIRECTION('',(0.0,1.0,0.0));
#211=VECTOR('',#210,1.826794919243112);
#212=LINE('',#209,#211);
#213=EDGE_CURVE('',#201,#116,#212,.T.);
#214=ORIENTED_EDGE('',*,*,#213,.T.);
#215=ORIENTED_EDGE('',*,*,#124,.T.);
#216=CARTESIAN_POINT('',(8.5,0.1,2000.0));
#217=VERTEX_POINT('',#216);
#218=CARTESIAN_POINT('',(8.5,0.0,2000.0));
#219=DIRECTION('',(0.0,1.0,0.0));
#220=VECTOR('',#219,0.1);
#221=LINE('',#218,#220);
#222=EDGE_CURVE('',#118,#217,#221,.T.);
#223=ORIENTED_EDGE('',*,*,#222,.T.);
#224=CARTESIAN_POINT('',(0.0,0.1,2000.0));
#225=VERTEX_POINT('',#224);
#226=CARTESIAN_POINT('',(8.5,0.1,2000.0));
#227=DIRECTION('',(-1.0,0.0,0.0));
#228=VECTOR('',#227,8.5);
#229=LINE('',#226,#228);
#230=EDGE_CURVE('',#217,#225,#229,.T.);
#231=ORIENTED_EDGE('',*,*,#230,.T.);
#232=CARTESIAN_POINT('',(0.0,0.1,2000.0));
#233=DIRECTION('',(0.0,-1.0,0.0));
#234=VECTOR('',#233,0.1);
#235=LINE('',#232,#234);
#236=EDGE_CURVE('',#225,#93,#235,.T.);
#237=ORIENTED_EDGE('',*,*,#236,.T.);
#238=ORIENTED_EDGE('',*,*,#99,.F.);
#239=CARTESIAN_POINT('',(0.05,-1.913397459621555,2000.0));
#240=VERTEX_POINT('',#239);
#241=CARTESIAN_POINT('',(0.05,-0.086602540378444,2000.0));
#242=DIRECTION('',(0.0,-1.0,0.0));
#243=VECTOR('',#242,1.826794919243111);
#244=LINE('',#241,#243);
#245=EDGE_CURVE('',#85,#240,#244,.T.);
#246=ORIENTED_EDGE('',*,*,#245,.T.);
#247=CARTESIAN_POINT('',(0.025,-1.97954124239817,2000.0));
#248=VERTEX_POINT('',#247);
#249=CARTESIAN_POINT('',(-0.05,-1.913397459621555,2000.0));
#250=DIRECTION('',(0.0,0.0,1.0));
#251=DIRECTION('',(0.500000000000004,-0.866025403784436,0.0));
#252=AXIS2_PLACEMENT_3D('',#249,#250,#251);
#253=CIRCLE('',#252,0.1);
#254=EDGE_CURVE('',#248,#240,#253,.T.);
#255=ORIENTED_EDGE('',*,*,#254,.F.);
#256=CARTESIAN_POINT('',(4.228248E-016,-2.045685025174784,2000.0));
#257=VERTEX_POINT('',#256);
#258=CARTESIAN_POINT('',(0.1,-2.045685025174784,2000.0));
#259=DIRECTION('',(0.0,0.0,-1.0));
#260=DIRECTION('',(-0.935414346693486,0.353553390593271,0.0));
#261=AXIS2_PLACEMENT_3D('',#258,#259,#260);
#262=CIRCLE('',#261,0.1);
#263=EDGE_CURVE('',#257,#248,#262,.T.);
#264=ORIENTED_EDGE('',*,*,#263,.F.);
#265=CARTESIAN_POINT('',(-1.561251E-016,-3.399999999999998,2000.0));
#266=VERTEX_POINT('',#265);
#267=CARTESIAN_POINT('',(4.228248E-016,-2.045685025174785,2000.0));
#268=DIRECTION('',(0.0,-1.0,0.0));
#269=VECTOR('',#268,1.354314974825214);
#270=LINE('',#267,#269);
#271=EDGE_CURVE('',#257,#266,#270,.T.);
#272=ORIENTED_EDGE('',*,*,#271,.T.);
#273=CARTESIAN_POINT('',(0.15,-3.399999999999999,2000.0));
#274=VERTEX_POINT('',#273);
#275=CARTESIAN_POINT('',(-1.665335E-016,-3.399999999999998,2000.0));
#276=DIRECTION('',(1.0,0.0,0.0));
#277=VECTOR('',#276,0.15);
#278=LINE('',#275,#277);
#279=EDGE_CURVE('',#266,#274,#278,.T.);
#280=ORIENTED_EDGE('',*,*,#279,.T.);
#281=CARTESIAN_POINT('',(0.150000000000001,9.797174E-017,2000.0));
#282=VERTEX_POINT('',#281);
#283=CARTESIAN_POINT('',(0.15,-3.399999999999999,2000.0));
#284=DIRECTION('',(0.0,1.0,0.0));
#285=VECTOR('',#284,3.399999999999999);
#286=LINE('',#283,#285);
#287=EDGE_CURVE('',#274,#282,#286,.T.);
#288=ORIENTED_EDGE('',*,*,#287,.T.);
#289=CARTESIAN_POINT('',(8.350000000000001,0.0,2000.0));
#290=VERTEX_POINT('',#289);
#291=CARTESIAN_POINT('',(0.150000000000001,0.0,2000.0));
#292=DIRECTION('',(1.0,0.0,0.0));
#293=VECTOR('',#292,8.200000000000001);
#294=LINE('',#291,#293);
#295=EDGE_CURVE('',#282,#290,#294,.T.);
#296=ORIENTED_EDGE('',*,*,#295,.T.);
#297=CARTESIAN_POINT('',(8.350000000000001,-3.4,2000.0));
#298=VERTEX_POINT('',#297);
#299=CARTESIAN_POINT('',(8.35,0.0,2000.0));
#300=DIRECTION('',(0.0,-1.0,0.0));
#301=VECTOR('',#300,3.4);
#302=LINE('',#299,#301);
#303=EDGE_CURVE('',#290,#298,#302,.T.);
#304=ORIENTED_EDGE('',*,*,#303,.T.);
#305=CARTESIAN_POINT('',(8.500000000000002,-3.4,2000.0));
#306=VERTEX_POINT('',#305);
#307=CARTESIAN_POINT('',(8.350000000000001,-3.4,2000.0));
#308=DIRECTION('',(1.0,0.0,0.0));
#309=VECTOR('',#308,0.15);
#310=LINE('',#307,#309);
#311=EDGE_CURVE('',#298,#306,#310,.T.);
#312=ORIENTED_EDGE('',*,*,#311,.T.);
#313=CARTESIAN_POINT('',(8.500000000000002,-3.4,2000.0));
#314=DIRECTION('',(0.0,1.0,0.0));
#315=VECTOR('',#314,1.354314974825214);
#316=LINE('',#313,#315);
#317=EDGE_CURVE('',#306,#160,#316,.T.);
#318=ORIENTED_EDGE('',*,*,#317,.T.);
#319=EDGE_LOOP('',(#199,#208,#214,#215,#223,#231,#237,#238,#246,#255,#264,#272,#280,#288,#296,#304,#312,#318));
#320=FACE_OUTER_BOUND('',#319,.T.);
#321=ADVANCED_FACE('',(#320),#198,.T.);
#322=CARTESIAN_POINT('',(8.550000000000001,-1.913397459621556,0.0));
#323=DIRECTION('',(0.0,0.0,-1.0));
#324=DIRECTION('',(-0.499999999999989,-0.866025403784445,0.0));
#325=AXIS2_PLACEMENT_3D('',#322,#323,#324);
#326=CYLINDRICAL_SURFACE('',#325,0.1);
#327=ORIENTED_EDGE('',*,*,#189,.F.);
#328=CARTESIAN_POINT('',(8.450000000000001,-1.913397459621556,0.0));
#329=VERTEX_POINT('',#328);
#330=CARTESIAN_POINT('',(8.550000000000001,-1.913397459621556,0.0));
#331=DIRECTION('',(0.0,0.0,-1.0));
#332=DIRECTION('',(-0.499999999999989,-0.866025403784445,0.0));
#333=AXIS2_PLACEMENT_3D('',#330,#331,#332);
#334=CIRCLE('',#333,0.1);
#335=EDGE_CURVE('',#329,#177,#334,.F.);
#336=ORIENTED_EDGE('',*,*,#335,.F.);
#337=CARTESIAN_POINT('',(8.450000000000001,-1.913397459621556,0.0));
#338=DIRECTION('',(0.0,0.0,1.0));
#339=VECTOR('',#338,2000.0);
#340=LINE('',#337,#339);
#341=EDGE_CURVE('',#329,#201,#340,.T.);
#342=ORIENTED_EDGE('',*,*,#341,.T.);
#343=ORIENTED_EDGE('',*,*,#207,.T.);
#344=EDGE_LOOP('',(#327,#336,#342,#343));
#345=FACE_OUTER_BOUND('',#344,.T.);
#346=ADVANCED_FACE('',(#345),#326,.F.);
#347=CARTESIAN_POINT('',(0.1,-2.045685025174784,0.0));
#348=DIRECTION('',(0.0,0.0,1.0));
#349=DIRECTION('',(-0.935414346693486,0.353553390593271,0.0));
#350=AXIS2_PLACEMENT_3D('',#347,#348,#349);
#351=CYLINDRICAL_SURFACE('',#350,0.1);
#352=ORIENTED_EDGE('',*,*,#263,.T.);
#353=CARTESIAN_POINT('',(0.025,-1.97954124239817,0.0));
#354=VERTEX_POINT('',#353);
#355=CARTESIAN_POINT('',(0.025,-1.97954124239817,2000.0));
#356=DIRECTION('',(0.0,0.0,-1.0));
#357=VECTOR('',#356,2000.0);
#358=LINE('',#355,#357);
#359=EDGE_CURVE('',#248,#354,#358,.T.);
#360=ORIENTED_EDGE('',*,*,#359,.T.);
#361=CARTESIAN_POINT('',(4.228248E-016,-2.045685025174784,0.0));
#362=VERTEX_POINT('',#361);
#363=CARTESIAN_POINT('',(0.1,-2.045685025174784,0.0));
#364=DIRECTION('',(0.0,0.0,1.0));
#365=DIRECTION('',(-0.935414346693486,0.353553390593271,0.0));
#366=AXIS2_PLACEMENT_3D('',#363,#364,#365);
#367=CIRCLE('',#366,0.1);
#368=EDGE_CURVE('',#354,#362,#367,.T.);
#369=ORIENTED_EDGE('',*,*,#368,.T.);
#370=CARTESIAN_POINT('',(4.163336E-016,-2.045685025174784,0.0));
#371=DIRECTION('',(0.0,0.0,1.0));
#372=VECTOR('',#371,2000.0);
#373=LINE('',#370,#372);
#374=EDGE_CURVE('',#362,#257,#373,.T.);
#375=ORIENTED_EDGE('',*,*,#374,.T.);
#376=EDGE_LOOP('',(#352,#360,#369,#375));
#377=FACE_OUTER_BOUND('',#376,.T.);
#378=ADVANCED_FACE('',(#377),#351,.T.);
#379=CARTESIAN_POINT('',(4.423545E-016,-1.999999999999999,0.0));
#380=DIRECTION('',(-1.0,0.0,0.0));
#381=DIRECTION('',(0.0,-1.0,0.0));
#382=AXIS2_PLACEMENT_3D('',#379,#380,#381);
#383=PLANE('',#382);
#384=ORIENTED_EDGE('',*,*,#374,.F.);
#385=CARTESIAN_POINT('',(-1.561251E-016,-3.399999999999998,0.0));
#386=VERTEX_POINT('',#385);
#387=CARTESIAN_POINT('',(-1.561251E-016,-3.399999999999998,0.0));
#388=DIRECTION('',(0.0,1.0,0.0));
#389=VECTOR('',#388,1.354314974825214);
#390=LINE('',#387,#389);
#391=EDGE_CURVE('',#386,#362,#390,.T.);
#392=ORIENTED_EDGE('',*,*,#391,.F.);
#393=CARTESIAN_POINT('',(-1.561251E-016,-3.399999999999998,0.0));
#394=DIRECTION('',(0.0,0.0,1.0));
#395=VECTOR('',#394,2000.0);
#396=LINE('',#393,#395);
#397=EDGE_CURVE('',#386,#266,#396,.T.);
#398=ORIENTED_EDGE('',*,*,#397,.T.);
#399=ORIENTED_EDGE('',*,*,#271,.F.);
#400=EDGE_LOOP('',(#384,#392,#398,#399));
#401=FACE_OUTER_BOUND('',#400,.T.);
#402=ADVANCED_FACE('',(#401),#383,.T.);
#403=CARTESIAN_POINT('',(-0.05,-1.913397459621555,0.0));
#404=DIRECTION('',(0.0,0.0,1.0));
#405=DIRECTION('',(0.500000000000004,-0.866025403784436,0.0));
#406=AXIS2_PLACEMENT_3D('',#403,#404,#405);
#407=CYLINDRICAL_SURFACE('',#406,0.1);
#408=ORIENTED_EDGE('',*,*,#359,.F.);
#409=ORIENTED_EDGE('',*,*,#254,.T.);
#410=CARTESIAN_POINT('',(0.05,-1.913397459621555,0.0));
#411=VERTEX_POINT('',#410);
#412=CARTESIAN_POINT('',(0.05,-1.913397459621555,2000.0));
#413=DIRECTION('',(0.0,0.0,-1.0));
#414=VECTOR('',#413,2000.0);
#415=LINE('',#412,#414);
#416=EDGE_CURVE('',#240,#411,#415,.T.);
#417=ORIENTED_EDGE('',*,*,#416,.T.);
#418=CARTESIAN_POINT('',(-0.05,-1.913397459621555,0.0));
#419=DIRECTION('',(0.0,0.0,-1.0));
#420=DIRECTION('',(0.500000000000004,-0.866025403784436,0.0));
#421=AXIS2_PLACEMENT_3D('',#418,#419,#420);
#422=CIRCLE('',#421,0.1);
#423=EDGE_CURVE('',#354,#411,#422,.F.);
#424=ORIENTED_EDGE('',*,*,#423,.F.);
#425=EDGE_LOOP('',(#408,#409,#417,#424));
#426=FACE_OUTER_BOUND('',#425,.T.);
#427=ADVANCED_FACE('',(#426),#407,.F.);
#428=CARTESIAN_POINT('',(8.500000000000002,-3.4,0.0));
#429=DIRECTION('',(1.0,0.0,0.0));
#430=DIRECTION('',(0.0,1.0,0.0));
#431=AXIS2_PLACEMENT_3D('',#428,#429,#430);
#432=PLANE('',#431);
#433=ORIENTED_EDGE('',*,*,#174,.F.);
#434=ORIENTED_EDGE('',*,*,#317,.F.);
#435=CARTESIAN_POINT('',(8.500000000000002,-3.4,0.0));
#436=VERTEX_POINT('',#435);
#437=CARTESIAN_POINT('',(8.500000000000002,-3.4,0.0));
#438=DIRECTION('',(0.0,0.0,1.0));
#439=VECTOR('',#438,2000.0);
#440=LINE('',#437,#439);
#441=EDGE_CURVE('',#436,#306,#440,.T.);
#442=ORIENTED_EDGE('',*,*,#441,.F.);
#443=CARTESIAN_POINT('',(8.500000000000002,-3.4,0.0));
#444=DIRECTION('',(0.0,1.0,0.0));
#445=VECTOR('',#444,1.354314974825214);
#446=LINE('',#443,#445);
#447=EDGE_CURVE('',#436,#169,#446,.T.);
#448=ORIENTED_EDGE('',*,*,#447,.T.);
#449=EDGE_LOOP('',(#433,#434,#442,#448));
#450=FACE_OUTER_BOUND('',#449,.T.);
#451=ADVANCED_FACE('',(#450),#432,.T.);
#452=CARTESIAN_POINT('',(8.350000000000001,-3.4,0.0));
#453=DIRECTION('',(0.0,-1.0,0.0));
#454=DIRECTION('',(1.0,0.0,0.0));
#455=AXIS2_PLACEMENT_3D('',#452,#453,#454);
#456=PLANE('',#455);
#457=CARTESIAN_POINT('',(8.350000000000001,-3.4,0.0));
#458=VERTEX_POINT('',#457);
#459=CARTESIAN_POINT('',(8.350000000000001,-3.4,0.0));
#460=DIRECTION('',(1.0,0.0,0.0));
#461=VECTOR('',#460,0.15);
#462=LINE('',#459,#461);
#463=EDGE_CURVE('',#458,#436,#462,.T.);
#464=ORIENTED_EDGE('',*,*,#463,.T.);
#465=ORIENTED_EDGE('',*,*,#441,.T.);
#466=ORIENTED_EDGE('',*,*,#311,.F.);
#467=CARTESIAN_POINT('',(8.350000000000001,-3.4,0.0));
#468=DIRECTION('',(0.0,0.0,1.0));
#469=VECTOR('',#468,2000.0);
#470=LINE('',#467,#469);
#471=EDGE_CURVE('',#458,#298,#470,.T.);
#472=ORIENTED_EDGE('',*,*,#471,.F.);
#473=EDGE_LOOP('',(#464,#465,#466,#472));
#474=FACE_OUTER_BOUND('',#473,.T.);
#475=ADVANCED_FACE('',(#474),#456,.T.);
#476=CARTESIAN_POINT('',(-1.561251E-016,-3.399999999999998,0.0));
#477=DIRECTION('',(0.0,-1.0,0.0));
#478=DIRECTION('',(1.0,0.0,0.0));
#479=AXIS2_PLACEMENT_3D('',#476,#477,#478);
#480=PLANE('',#479);
#481=CARTESIAN_POINT('',(0.15,-3.399999999999999,0.0));
#482=VERTEX_POINT('',#481);
#483=CARTESIAN_POINT('',(0.15,-3.399999999999999,0.0));
#484=DIRECTION('',(-1.0,0.0,0.0));
#485=VECTOR('',#484,0.15);
#486=LINE('',#483,#485);
#487=EDGE_CURVE('',#482,#386,#486,.T.);
#488=ORIENTED_EDGE('',*,*,#487,.F.);
#489=CARTESIAN_POINT('',(0.15,-3.399999999999999,0.0));
#490=DIRECTION('',(0.0,0.0,1.0));
#491=VECTOR('',#490,2000.0);
#492=LINE('',#489,#491);
#493=EDGE_CURVE('',#482,#274,#492,.T.);
#494=ORIENTED_EDGE('',*,*,#493,.T.);
#495=ORIENTED_EDGE('',*,*,#279,.F.);
#496=ORIENTED_EDGE('',*,*,#397,.F.);
#497=EDGE_LOOP('',(#488,#494,#495,#496));
#498=FACE_OUTER_BOUND('',#497,.T.);
#499=ADVANCED_FACE('',(#498),#480,.T.);
#500=CARTESIAN_POINT('',(0.05,0.0,0.0));
#501=DIRECTION('',(-1.0,0.0,0.0));
#502=DIRECTION('',(0.0,-1.0,0.0));
#503=AXIS2_PLACEMENT_3D('',#500,#501,#502);
#504=PLANE('',#503);
#505=ORIENTED_EDGE('',*,*,#90,.F.);
#506=CARTESIAN_POINT('',(0.05,-1.913397459621555,0.0));
#507=DIRECTION('',(0.0,1.0,0.0));
#508=VECTOR('',#507,1.826794919243111);
#509=LINE('',#506,#508);
#510=EDGE_CURVE('',#411,#74,#509,.T.);
#511=ORIENTED_EDGE('',*,*,#510,.F.);
#512=ORIENTED_EDGE('',*,*,#416,.F.);
#513=ORIENTED_EDGE('',*,*,#245,.F.);
#514=EDGE_LOOP('',(#505,#511,#512,#513));
#515=FACE_OUTER_BOUND('',#514,.T.);
#516=ADVANCED_FACE('',(#515),#504,.T.);
#517=CARTESIAN_POINT('',(0.15,-1.999999999999999,0.0));
#518=DIRECTION('',(1.0,0.0,0.0));
#519=DIRECTION('',(0.0,1.0,0.0));
#520=AXIS2_PLACEMENT_3D('',#517,#518,#519);
#521=PLANE('',#520);
#522=CARTESIAN_POINT('',(0.150000000000001,9.797174E-017,0.0));
#523=VERTEX_POINT('',#522);
#524=CARTESIAN_POINT('',(0.150000000000001,0.0,0.0));
#525=DIRECTION('',(0.0,-1.0,0.0));
#526=VECTOR('',#525,3.399999999999999);
#527=LINE('',#524,#526);
#528=EDGE_CURVE('',#523,#482,#527,.T.);
#529=ORIENTED_EDGE('',*,*,#528,.F.);
#530=CARTESIAN_POINT('',(0.150000000000001,0.0,2000.0));
#531=DIRECTION('',(0.0,0.0,-1.0));
#532=VECTOR('',#531,2000.0);
#533=LINE('',#530,#532);
#534=EDGE_CURVE('',#282,#523,#533,.T.);
#535=ORIENTED_EDGE('',*,*,#534,.F.);
#536=ORIENTED_EDGE('',*,*,#287,.F.);
#537=ORIENTED_EDGE('',*,*,#493,.F.);
#538=EDGE_LOOP('',(#529,#535,#536,#537));
#539=FACE_OUTER_BOUND('',#538,.T.);
#540=ADVANCED_FACE('',(#539),#521,.T.);
#541=CARTESIAN_POINT('',(8.350000000000001,0.0,0.0));
#542=DIRECTION('',(-1.0,0.0,0.0));
#543=DIRECTION('',(0.0,-1.0,0.0));
#544=AXIS2_PLACEMENT_3D('',#541,#542,#543);
#545=PLANE('',#544);
#546=CARTESIAN_POINT('',(8.350000000000001,-4.898587E-017,0.0));
#547=VERTEX_POINT('',#546);
#548=CARTESIAN_POINT('',(8.350000000000001,-3.4,0.0));
#549=DIRECTION('',(0.0,1.0,0.0));
#550=VECTOR('',#549,3.4);
#551=LINE('',#548,#550);
#552=EDGE_CURVE('',#458,#547,#551,.T.);
#553=ORIENTED_EDGE('',*,*,#552,.F.);
#554=ORIENTED_EDGE('',*,*,#471,.T.);
#555=ORIENTED_EDGE('',*,*,#303,.F.);
#556=CARTESIAN_POINT('',(8.350000000000001,0.0,0.0));
#557=DIRECTION('',(0.0,0.0,1.0));
#558=VECTOR('',#557,2000.0);
#559=LINE('',#556,#558);
#560=EDGE_CURVE('',#547,#290,#559,.T.);
#561=ORIENTED_EDGE('',*,*,#560,.F.);
#562=EDGE_LOOP('',(#553,#554,#555,#561));
#563=FACE_OUTER_BOUND('',#562,.T.);
#564=ADVANCED_FACE('',(#563),#545,.T.);
#565=CARTESIAN_POINT('',(8.450000000000001,-2.0,0.0));
#566=DIRECTION('',(1.0,0.0,0.0));
#567=DIRECTION('',(0.0,1.0,0.0));
#568=AXIS2_PLACEMENT_3D('',#565,#566,#567);
#569=PLANE('',#568);
#570=ORIENTED_EDGE('',*,*,#132,.F.);
#571=ORIENTED_EDGE('',*,*,#213,.F.);
#572=ORIENTED_EDGE('',*,*,#341,.F.);
#573=CARTESIAN_POINT('',(8.450000000000001,-0.086602540378444,0.0));
#574=DIRECTION('',(0.0,-1.0,0.0));
#575=VECTOR('',#574,1.826794919243112);
#576=LINE('',#573,#575);
#577=EDGE_CURVE('',#127,#329,#576,.T.);
#578=ORIENTED_EDGE('',*,*,#577,.F.);
#579=EDGE_LOOP('',(#570,#571,#572,#578));
#580=FACE_OUTER_BOUND('',#579,.T.);
#581=ADVANCED_FACE('',(#580),#569,.T.);
#582=CARTESIAN_POINT('',(0.0,0.0,0.0));
#583=DIRECTION('',(0.0,-1.0,0.0));
#584=DIRECTION('',(1.0,0.0,0.0));
#585=AXIS2_PLACEMENT_3D('',#582,#583,#584);
#586=PLANE('',#585);
#587=ORIENTED_EDGE('',*,*,#534,.T.);
#588=CARTESIAN_POINT('',(0.150000000000001,0.0,0.0));
#589=DIRECTION('',(1.0,0.0,0.0));
#590=VECTOR('',#589,8.200000000000001);
#591=LINE('',#588,#590);
#592=EDGE_CURVE('',#523,#547,#591,.T.);
#593=ORIENTED_EDGE('',*,*,#592,.T.);
#594=ORIENTED_EDGE('',*,*,#560,.T.);
#595=ORIENTED_EDGE('',*,*,#295,.F.);
#596=EDGE_LOOP('',(#587,#593,#594,#595));
#597=FACE_OUTER_BOUND('',#596,.T.);
#598=ADVANCED_FACE('',(#597),#586,.T.);
#599=CARTESIAN_POINT('',(0.0,0.1,0.0));
#600=DIRECTION('',(-1.0,0.0,0.0));
#601=DIRECTION('',(0.0,-1.0,0.0));
#602=AXIS2_PLACEMENT_3D('',#599,#600,#601);
#603=PLANE('',#602);
#604=CARTESIAN_POINT('',(0.0,0.1,0.0));
#605=VERTEX_POINT('',#604);
#606=CARTESIAN_POINT('',(0.0,0.1,0.0));
#607=DIRECTION('',(0.0,-1.0,0.0));
#608=VECTOR('',#607,0.1);
#609=LINE('',#606,#608);
#610=EDGE_CURVE('',#605,#76,#609,.T.);
#611=ORIENTED_EDGE('',*,*,#610,.T.);
#612=ORIENTED_EDGE('',*,*,#105,.T.);
#613=ORIENTED_EDGE('',*,*,#236,.F.);
#614=CARTESIAN_POINT('',(0.0,0.1,0.0));
#615=DIRECTION('',(0.0,0.0,1.0));
#616=VECTOR('',#615,2000.0);
#617=LINE('',#614,#616);
#618=EDGE_CURVE('',#605,#225,#617,.T.);
#619=ORIENTED_EDGE('',*,*,#618,.F.);
#620=EDGE_LOOP('',(#611,#612,#613,#619));
#621=FACE_OUTER_BOUND('',#620,.T.);
#622=ADVANCED_FACE('',(#621),#603,.T.);
#623=CARTESIAN_POINT('',(8.5,0.1,0.0));
#624=DIRECTION('',(0.0,1.0,0.0));
#625=DIRECTION('',(-1.0,0.0,0.0));
#626=AXIS2_PLACEMENT_3D('',#623,#624,#625);
#627=PLANE('',#626);
#628=CARTESIAN_POINT('',(8.5,0.1,0.0));
#629=VERTEX_POINT('',#628);
#630=CARTESIAN_POINT('',(8.5,0.1,0.0));
#631=DIRECTION('',(-1.0,0.0,0.0));
#632=VECTOR('',#631,8.5);
#633=LINE('',#630,#632);
#634=EDGE_CURVE('',#629,#605,#633,.T.);
#635=ORIENTED_EDGE('',*,*,#634,.T.);
#636=ORIENTED_EDGE('',*,*,#618,.T.);
#637=ORIENTED_EDGE('',*,*,#230,.F.);
#638=CARTESIAN_POINT('',(8.5,0.1,0.0));
#639=DIRECTION('',(0.0,0.0,1.0));
#640=VECTOR('',#639,2000.0);
#641=LINE('',#638,#640);
#642=EDGE_CURVE('',#629,#217,#641,.T.);
#643=ORIENTED_EDGE('',*,*,#642,.F.);
#644=EDGE_LOOP('',(#635,#636,#637,#643));
#645=FACE_OUTER_BOUND('',#644,.T.);
#646=ADVANCED_FACE('',(#645),#627,.T.);
#647=CARTESIAN_POINT('',(8.5,0.0,0.0));
#648=DIRECTION('',(1.0,0.0,0.0));
#649=DIRECTION('',(0.0,1.0,0.0));
#650=AXIS2_PLACEMENT_3D('',#647,#648,#649);
#651=PLANE('',#650);
#652=CARTESIAN_POINT('',(8.5,0.0,0.0));
#653=DIRECTION('',(0.0,1.0,0.0));
#654=VECTOR('',#653,0.1);
#655=LINE('',#652,#654);
#656=EDGE_CURVE('',#135,#629,#655,.T.);
#657=ORIENTED_EDGE('',*,*,#656,.T.);
#658=ORIENTED_EDGE('',*,*,#642,.T.);
#659=ORIENTED_EDGE('',*,*,#222,.F.);
#660=ORIENTED_EDGE('',*,*,#147,.F.);
#661=EDGE_LOOP('',(#657,#658,#659,#660));
#662=FACE_OUTER_BOUND('',#661,.T.);
#663=ADVANCED_FACE('',(#662),#651,.T.);
#664=CARTESIAN_POINT('',(4.25,0.05,0.0));
#665=DIRECTION('',(0.0,0.0,1.0));
#666=DIRECTION('',(1.0,0.0,0.0));
#667=AXIS2_PLACEMENT_3D('',#664,#665,#666);
#668=PLANE('',#667);
#669=ORIENTED_EDGE('',*,*,#183,.F.);
#670=ORIENTED_EDGE('',*,*,#447,.F.);
#671=ORIENTED_EDGE('',*,*,#463,.F.);
#672=ORIENTED_EDGE('',*,*,#552,.T.);
#673=ORIENTED_EDGE('',*,*,#592,.F.);
#674=ORIENTED_EDGE('',*,*,#528,.T.);
#675=ORIENTED_EDGE('',*,*,#487,.T.);
#676=ORIENTED_EDGE('',*,*,#391,.T.);
#677=ORIENTED_EDGE('',*,*,#368,.F.);
#678=ORIENTED_EDGE('',*,*,#423,.T.);
#679=ORIENTED_EDGE('',*,*,#510,.T.);
#680=ORIENTED_EDGE('',*,*,#82,.T.);
#681=ORIENTED_EDGE('',*,*,#610,.F.);
#682=ORIENTED_EDGE('',*,*,#634,.F.);
#683=ORIENTED_EDGE('',*,*,#656,.F.);
#684=ORIENTED_EDGE('',*,*,#141,.F.);
#685=ORIENTED_EDGE('',*,*,#577,.T.);
#686=ORIENTED_EDGE('',*,*,#335,.T.);
#687=EDGE_LOOP('',(#669,#670,#671,#672,#673,#674,#675,#676,#677,#678,#679,#680,#681,#682,#683,#684,#685,#686));
#688=FACE_OUTER_BOUND('',#687,.T.);
#689=ADVANCED_FACE('',(#688),#668,.F.);
#690=CLOSED_SHELL('',(#109,#151,#193,#321,#346,#378,#402,#427,#451,#475,#499,#516,#540,#564,#581,#598,#622,#646,#663,#689));
#691=MANIFOLD_SOLID_BREP('Bry\X2\0142\X0\a1',#690);
#692=COLOUR_RGB('',0.843137264251709,0.843137264251709,0.843137264251709);
#693=FILL_AREA_STYLE_COLOUR('',#692);
#694=FILL_AREA_STYLE('',(#693));
#695=SURFACE_STYLE_FILL_AREA(#694);
#696=SURFACE_SIDE_STYLE('',(#695));
#697=SURFACE_STYLE_USAGE(.BOTH.,#696);
#698=PRESENTATION_STYLE_ASSIGNMENT((#697));
#699=STYLED_ITEM('',(#698,#733),#691);
#700=COLOUR_RGB('',0.952941179275513,1.0,0.0);
#701=FILL_AREA_STYLE_COLOUR('',#700);
#702=FILL_AREA_STYLE('',(#701));
#703=SURFACE_STYLE_FILL_AREA(#702);
#704=SURFACE_SIDE_STYLE('',(#703));
#705=SURFACE_STYLE_USAGE(.BOTH.,#704);
#706=PRESENTATION_STYLE_ASSIGNMENT((#705));
#707=OVER_RIDING_STYLED_ITEM('',(#706),#109,#699);
#708=OVER_RIDING_STYLED_ITEM('',(#706),#151,#699);
#709=OVER_RIDING_STYLED_ITEM('',(#706),#193,#699);
#710=OVER_RIDING_STYLED_ITEM('',(#706),#321,#699);
#711=OVER_RIDING_STYLED_ITEM('',(#706),#346,#699);
#712=OVER_RIDING_STYLED_ITEM('',(#706),#378,#699);
#713=OVER_RIDING_STYLED_ITEM('',(#706),#402,#699);
#714=OVER_RIDING_STYLED_ITEM('',(#706),#427,#699);
#715=OVER_RIDING_STYLED_ITEM('',(#706),#451,#699);
#716=OVER_RIDING_STYLED_ITEM('',(#706),#475,#699);
#717=OVER_RIDING_STYLED_ITEM('',(#706),#499,#699);
#718=OVER_RIDING_STYLED_ITEM('',(#706),#516,#699);
#719=OVER_RIDING_STYLED_ITEM('',(#706),#540,#699);
#720=OVER_RIDING_STYLED_ITEM('',(#706),#564,#699);
#721=OVER_RIDING_STYLED_ITEM('',(#706),#581,#699);
#722=OVER_RIDING_STYLED_ITEM('',(#706),#598,#699);
#723=OVER_RIDING_STYLED_ITEM('',(#706),#622,#699);
#724=OVER_RIDING_STYLED_ITEM('',(#706),#646,#699);
#725=OVER_RIDING_STYLED_ITEM('',(#706),#663,#699);
#726=MECHANICAL_DESIGN_GEOMETRIC_PRESENTATION_REPRESENTATION('',(#699,#707,#708,#709,#710,#711,#712,#713,#714,#715,#716,#717,#718,#719,#720,#721,#722,#723,#724,#725),#67);
#727=COLOUR_RGB('G\X2\FFFD\X0\adkie \X2\FFFD\X0\ czarne(2)',0.952941179275513,1.0,0.0);
#728=FILL_AREA_STYLE_COLOUR('G\X2\FFFD\X0\adkie \X2\FFFD\X0\ czarne(2)',#727);
#729=FILL_AREA_STYLE('G\X2\FFFD\X0\adkie \X2\FFFD\X0\ czarne(2)',(#728));
#730=SURFACE_STYLE_FILL_AREA(#729);
#731=SURFACE_SIDE_STYLE('G\X2\FFFD\X0\adkie \X2\FFFD\X0\ czarne(2)',(#730));
#732=SURFACE_STYLE_USAGE(.BOTH.,#731);
#733=PRESENTATION_STYLE_ASSIGNMENT((#732));
#734=ADVANCED_BREP_SHAPE_REPRESENTATION('ABSR',(#691),#36);
#735=SHAPE_REPRESENTATION_RELATIONSHIP('SRR','None',#734,#41);
ENDSEC;
END-ISO-10303-21;
