ISO-10303-21;
HEADER;
/****************************************************************
 * Generated by software with PDElib inside                    *
 * PDElib Version v51a, created Wed 11/30/2011                  *
 * ITI Transcendata (http://www.transcendata.com/)              *
 ****************************************************************/
FILE_DESCRIPTION((''),'2;1');
FILE_NAME('\\\\WIN\\Rysunki\\Inventor\\@System profili aluminiowych\\System profili aluminiowych STEP ARMA\\AR3611 za\X2\015B\X0\lepka do k\X2\0105\X0\townika 45x90.stp','2016-04-27T08:21:02',('Konstruktor II'),(''),'Autodesk Inventor 2013','Autodesk Inventor 2013','');
FILE_SCHEMA(('AUTOMOTIVE_DESIGN { 1 0 10303 214 1 1 1 1 }'));
ENDSEC;
DATA;
#5=APPLICATION_CONTEXT('automotive design');
#6=APPLICATION_PROTOCOL_DEFINITION('International Standard','automotive_design',2001,#5);
#7=PRODUCT_CONTEXT('',#5,'mechanical');
#8=PRODUCT('AR3611 za\X2\015B\X0\lepka do k\X2\0105\X0\townika 45x90','AR3611 za\X2\015B\X0\lepka do k\X2\0105\X0\townika 45x90',$,(#7));
#9=PRODUCT_RELATED_PRODUCT_CATEGORY('part',$,(#8));
#10=PRODUCT_DEFINITION_FORMATION('',$,#8);
#11=PRODUCT_DEFINITION_CONTEXT('part definition',#5,'design');
#12=PRODUCT_DEFINITION('',$,#10,#11);
#18=(NAMED_UNIT(*)PLANE_ANGLE_UNIT()SI_UNIT($,.RADIAN.));
#19=DIMENSIONAL_EXPONENTS(0.0,0.0,0.0,0.0,0.0,0.0,0.0);
#20=PLANE_ANGLE_MEASURE_WITH_UNIT(PLANE_ANGLE_MEASURE(0.0174532925),#18);
#24=(CONVERSION_BASED_UNIT('DEGREE',#20)NAMED_UNIT(#19)PLANE_ANGLE_UNIT());
#28=(NAMED_UNIT(*)SI_UNIT($,.STERADIAN.)SOLID_ANGLE_UNIT());
#32=(LENGTH_UNIT()NAMED_UNIT(*)SI_UNIT(.MILLI.,.METRE.));
#34=UNCERTAINTY_MEASURE_WITH_UNIT(LENGTH_MEASURE(0.01),#32,'DISTANCE_ACCURACY_VALUE','');
#36=(GEOMETRIC_REPRESENTATION_CONTEXT(3)GLOBAL_UNCERTAINTY_ASSIGNED_CONTEXT((#34))GLOBAL_UNIT_ASSIGNED_CONTEXT((#24,#28,#32))REPRESENTATION_CONTEXT('None','None'));
#37=AXIS2_PLACEMENT_3D('',#38,#39,#40);
#38=CARTESIAN_POINT('',(0.0,0.0,0.0));
#39=DIRECTION('',(0.0,0.0,1.0));
#40=DIRECTION('',(1.0,0.0,0.0));
#41=SHAPE_REPRESENTATION('',(#37),#36);
#42=PRODUCT_DEFINITION_SHAPE('','',#12);
#43=SHAPE_DEFINITION_REPRESENTATION(#42,#41);
#49=(NAMED_UNIT(*)PLANE_ANGLE_UNIT()SI_UNIT($,.RADIAN.));
#50=DIMENSIONAL_EXPONENTS(0.0,0.0,0.0,0.0,0.0,0.0,0.0);
#51=PLANE_ANGLE_MEASURE_WITH_UNIT(PLANE_ANGLE_MEASURE(0.0174532925),#49);
#55=(CONVERSION_BASED_UNIT('DEGREE',#51)NAMED_UNIT(#50)PLANE_ANGLE_UNIT());
#59=(NAMED_UNIT(*)SI_UNIT($,.STERADIAN.)SOLID_ANGLE_UNIT());
#63=(LENGTH_UNIT()NAMED_UNIT(*)SI_UNIT(.MILLI.,.METRE.));
#65=UNCERTAINTY_MEASURE_WITH_UNIT(LENGTH_MEASURE(0.000001),#63,'DISTANCE_ACCURACY_VALUE','');
#67=(GEOMETRIC_REPRESENTATION_CONTEXT(3)GLOBAL_UNCERTAINTY_ASSIGNED_CONTEXT((#65))GLOBAL_UNIT_ASSIGNED_CONTEXT((#55,#59,#63))REPRESENTATION_CONTEXT('','3D'));
#68=CARTESIAN_POINT('',(10.000000000000009,3.0,10.0));
#69=DIRECTION('',(1.0,0.0,0.0));
#70=DIRECTION('',(0.0,0.0,1.0));
#71=AXIS2_PLACEMENT_3D('',#68,#69,#70);
#72=PLANE('',#71);
#73=CARTESIAN_POINT('',(10.000000000000009,0.0,88.0));
#74=VERTEX_POINT('',#73);
#75=CARTESIAN_POINT('',(10.000000000000009,0.0,10.0));
#76=VERTEX_POINT('',#75);
#77=CARTESIAN_POINT('',(10.000000000000009,0.0,88.000000000000014));
#78=DIRECTION('',(0.0,0.0,-1.0));
#79=VECTOR('',#78,78.000000000000014);
#80=LINE('',#77,#79);
#81=EDGE_CURVE('',#74,#76,#80,.T.);
#82=ORIENTED_EDGE('',*,*,#81,.F.);
#83=CARTESIAN_POINT('',(10.000000000000009,3.0,88.0));
#84=VERTEX_POINT('',#83);
#85=CARTESIAN_POINT('',(10.000000000000009,3.0,88.0));
#86=DIRECTION('',(0.0,-1.0,0.0));
#87=VECTOR('',#86,3.0);
#88=LINE('',#85,#87);
#89=EDGE_CURVE('',#84,#74,#88,.T.);
#90=ORIENTED_EDGE('',*,*,#89,.F.);
#91=CARTESIAN_POINT('',(10.000000000000009,3.0,10.0));
#92=VERTEX_POINT('',#91);
#93=CARTESIAN_POINT('',(10.000000000000011,3.0,10.0));
#94=DIRECTION('',(0.0,0.0,1.0));
#95=VECTOR('',#94,78.0);
#96=LINE('',#93,#95);
#97=EDGE_CURVE('',#92,#84,#96,.T.);
#98=ORIENTED_EDGE('',*,*,#97,.F.);
#99=CARTESIAN_POINT('',(10.000000000000009,3.0,10.0));
#100=DIRECTION('',(0.0,-1.0,0.0));
#101=VECTOR('',#100,3.0);
#102=LINE('',#99,#101);
#103=EDGE_CURVE('',#92,#76,#102,.T.);
#104=ORIENTED_EDGE('',*,*,#103,.T.);
#105=EDGE_LOOP('',(#82,#90,#98,#104));
#106=FACE_OUTER_BOUND('',#105,.T.);
#107=ADVANCED_FACE('',(#106),#72,.F.);
#108=CARTESIAN_POINT('',(88.0,3.0,10.0));
#109=DIRECTION('',(0.0,0.0,1.0));
#110=DIRECTION('',(-1.0,0.0,0.0));
#111=AXIS2_PLACEMENT_3D('',#108,#109,#110);
#112=PLANE('',#111);
#113=CARTESIAN_POINT('',(88.0,0.0,10.0));
#114=VERTEX_POINT('',#113);
#115=CARTESIAN_POINT('',(10.000000000000007,0.0,10.0));
#116=DIRECTION('',(1.0,0.0,0.0));
#117=VECTOR('',#116,78.0);
#118=LINE('',#115,#117);
#119=EDGE_CURVE('',#76,#114,#118,.T.);
#120=ORIENTED_EDGE('',*,*,#119,.F.);
#121=ORIENTED_EDGE('',*,*,#103,.F.);
#122=CARTESIAN_POINT('',(88.0,3.0,10.0));
#123=VERTEX_POINT('',#122);
#124=CARTESIAN_POINT('',(88.0,3.0,9.999999999999998));
#125=DIRECTION('',(-1.0,0.0,0.0));
#126=VECTOR('',#125,78.0);
#127=LINE('',#124,#126);
#128=EDGE_CURVE('',#123,#92,#127,.T.);
#129=ORIENTED_EDGE('',*,*,#128,.F.);
#130=CARTESIAN_POINT('',(88.0,3.0,10.0));
#131=DIRECTION('',(0.0,-1.0,0.0));
#132=VECTOR('',#131,3.0);
#133=LINE('',#130,#132);
#134=EDGE_CURVE('',#123,#114,#133,.T.);
#135=ORIENTED_EDGE('',*,*,#134,.T.);
#136=EDGE_LOOP('',(#120,#121,#129,#135));
#137=FACE_OUTER_BOUND('',#136,.T.);
#138=ADVANCED_FACE('',(#137),#112,.F.);
#139=CARTESIAN_POINT('',(91.000000000000014,0.0,0.0));
#140=DIRECTION('',(0.0,0.0,-1.0));
#141=DIRECTION('',(-1.0,0.0,0.0));
#142=AXIS2_PLACEMENT_3D('',#139,#140,#141);
#143=PLANE('',#142);
#144=CARTESIAN_POINT('',(88.0,0.0,0.0));
#145=VERTEX_POINT('',#144);
#146=CARTESIAN_POINT('',(88.0,42.0,0.0));
#147=VERTEX_POINT('',#146);
#148=CARTESIAN_POINT('',(88.0,0.0,0.0));
#149=DIRECTION('',(0.0,1.0,0.0));
#150=VECTOR('',#149,42.0);
#151=LINE('',#148,#150);
#152=EDGE_CURVE('',#145,#147,#151,.T.);
#153=ORIENTED_EDGE('',*,*,#152,.T.);
#154=CARTESIAN_POINT('',(91.000000000000014,42.0,0.0));
#155=VERTEX_POINT('',#154);
#156=CARTESIAN_POINT('',(91.000000000000014,42.0,0.0));
#157=DIRECTION('',(-1.0,0.0,0.0));
#158=VECTOR('',#157,3.000000000000014);
#159=LINE('',#156,#158);
#160=EDGE_CURVE('',#155,#147,#159,.T.);
#161=ORIENTED_EDGE('',*,*,#160,.F.);
#162=CARTESIAN_POINT('',(91.000000000000014,0.0,0.0));
#163=VERTEX_POINT('',#162);
#164=CARTESIAN_POINT('',(91.000000000000014,0.0,0.0));
#165=DIRECTION('',(0.0,1.0,0.0));
#166=VECTOR('',#165,42.0);
#167=LINE('',#164,#166);
#168=EDGE_CURVE('',#163,#155,#167,.T.);
#169=ORIENTED_EDGE('',*,*,#168,.F.);
#170=CARTESIAN_POINT('',(91.000000000000014,0.0,0.0));
#171=DIRECTION('',(-1.0,0.0,0.0));
#172=VECTOR('',#171,3.000000000000014);
#173=LINE('',#170,#172);
#174=EDGE_CURVE('',#163,#145,#173,.T.);
#175=ORIENTED_EDGE('',*,*,#174,.T.);
#176=EDGE_LOOP('',(#153,#161,#169,#175));
#177=FACE_OUTER_BOUND('',#176,.T.);
#178=ADVANCED_FACE('',(#177),#143,.T.);
#179=CARTESIAN_POINT('',(33.323002707566943,3.0,33.323002707566943));
#180=DIRECTION('',(0.0,1.0,0.0));
#181=DIRECTION('',(0.0,0.0,1.0));
#182=AXIS2_PLACEMENT_3D('',#179,#180,#181);
#183=PLANE('',#182);
#184=ORIENTED_EDGE('',*,*,#128,.T.);
#185=ORIENTED_EDGE('',*,*,#97,.T.);
#186=CARTESIAN_POINT('',(88.0,3.0,10.0));
#187=DIRECTION('',(-0.707106781186548,0.0,0.707106781186548));
#188=VECTOR('',#187,110.30865786510141);
#189=LINE('',#186,#188);
#190=EDGE_CURVE('',#123,#84,#189,.T.);
#191=ORIENTED_EDGE('',*,*,#190,.F.);
#192=EDGE_LOOP('',(#184,#185,#191));
#193=FACE_OUTER_BOUND('',#192,.T.);
#194=ADVANCED_FACE('',(#193),#183,.T.);
#195=CARTESIAN_POINT('',(88.0,0.0,0.0));
#196=DIRECTION('',(-1.0,0.0,0.0));
#197=DIRECTION('',(0.0,0.0,1.0));
#198=AXIS2_PLACEMENT_3D('',#195,#196,#197);
#199=PLANE('',#198);
#200=CARTESIAN_POINT('',(88.0,42.0,10.0));
#201=VERTEX_POINT('',#200);
#202=CARTESIAN_POINT('',(88.0,3.0,10.0));
#203=DIRECTION('',(0.0,1.0,0.0));
#204=VECTOR('',#203,39.0);
#205=LINE('',#202,#204);
#206=EDGE_CURVE('',#123,#201,#205,.T.);
#207=ORIENTED_EDGE('',*,*,#206,.T.);
#208=CARTESIAN_POINT('',(88.0,42.0,0.0));
#209=DIRECTION('',(0.0,0.0,1.0));
#210=VECTOR('',#209,10.0);
#211=LINE('',#208,#210);
#212=EDGE_CURVE('',#147,#201,#211,.T.);
#213=ORIENTED_EDGE('',*,*,#212,.F.);
#214=ORIENTED_EDGE('',*,*,#152,.F.);
#215=CARTESIAN_POINT('',(88.0,0.0,10.0));
#216=DIRECTION('',(0.0,0.0,-1.0));
#217=VECTOR('',#216,10.0);
#218=LINE('',#215,#217);
#219=EDGE_CURVE('',#114,#145,#218,.T.);
#220=ORIENTED_EDGE('',*,*,#219,.F.);
#221=ORIENTED_EDGE('',*,*,#134,.F.);
#222=EDGE_LOOP('',(#207,#213,#214,#220,#221));
#223=FACE_OUTER_BOUND('',#222,.T.);
#224=ADVANCED_FACE('',(#223),#199,.T.);
#225=CARTESIAN_POINT('',(88.0,0.0,10.0));
#226=DIRECTION('',(-0.707106781186548,0.0,-0.707106781186547));
#227=DIRECTION('',(-0.707106781186547,0.0,0.707106781186548));
#228=AXIS2_PLACEMENT_3D('',#225,#226,#227);
#229=PLANE('',#228);
#230=ORIENTED_EDGE('',*,*,#190,.T.);
#231=CARTESIAN_POINT('',(10.000000000000009,42.0,88.0));
#232=VERTEX_POINT('',#231);
#233=CARTESIAN_POINT('',(10.000000000000009,3.0,88.0));
#234=DIRECTION('',(0.0,1.0,0.0));
#235=VECTOR('',#234,39.0);
#236=LINE('',#233,#235);
#237=EDGE_CURVE('',#84,#232,#236,.T.);
#238=ORIENTED_EDGE('',*,*,#237,.T.);
#239=CARTESIAN_POINT('',(88.0,42.0,10.0));
#240=DIRECTION('',(-0.707106781186547,0.0,0.707106781186548));
#241=VECTOR('',#240,110.30865786510141);
#242=LINE('',#239,#241);
#243=EDGE_CURVE('',#201,#232,#242,.T.);
#244=ORIENTED_EDGE('',*,*,#243,.F.);
#245=ORIENTED_EDGE('',*,*,#206,.F.);
#246=EDGE_LOOP('',(#230,#238,#244,#245));
#247=FACE_OUTER_BOUND('',#246,.T.);
#248=ADVANCED_FACE('',(#247),#229,.T.);
#249=CARTESIAN_POINT('',(10.000000000000009,0.0,88.0));
#250=DIRECTION('',(0.0,0.0,-1.0));
#251=DIRECTION('',(-1.0,0.0,0.0));
#252=AXIS2_PLACEMENT_3D('',#249,#250,#251);
#253=PLANE('',#252);
#254=CARTESIAN_POINT('',(0.0,0.0,88.0));
#255=VERTEX_POINT('',#254);
#256=CARTESIAN_POINT('',(0.0,42.0,88.0));
#257=VERTEX_POINT('',#256);
#258=CARTESIAN_POINT('',(0.0,0.0,88.0));
#259=DIRECTION('',(0.0,1.0,0.0));
#260=VECTOR('',#259,42.0);
#261=LINE('',#258,#260);
#262=EDGE_CURVE('',#255,#257,#261,.T.);
#263=ORIENTED_EDGE('',*,*,#262,.T.);
#264=CARTESIAN_POINT('',(10.000000000000009,42.0,88.0));
#265=DIRECTION('',(-1.0,0.0,0.0));
#266=VECTOR('',#265,10.000000000000009);
#267=LINE('',#264,#266);
#268=EDGE_CURVE('',#232,#257,#267,.T.);
#269=ORIENTED_EDGE('',*,*,#268,.F.);
#270=ORIENTED_EDGE('',*,*,#237,.F.);
#271=ORIENTED_EDGE('',*,*,#89,.T.);
#272=CARTESIAN_POINT('',(0.0,0.0,88.0));
#273=DIRECTION('',(1.0,0.0,0.0));
#274=VECTOR('',#273,10.000000000000007);
#275=LINE('',#272,#274);
#276=EDGE_CURVE('',#255,#74,#275,.T.);
#277=ORIENTED_EDGE('',*,*,#276,.F.);
#278=EDGE_LOOP('',(#263,#269,#270,#271,#277));
#279=FACE_OUTER_BOUND('',#278,.T.);
#280=ADVANCED_FACE('',(#279),#253,.T.);
#281=CARTESIAN_POINT('',(91.000000000000014,0.0,11.242640687119218));
#282=DIRECTION('',(1.0,0.0,0.0));
#283=DIRECTION('',(0.0,0.0,-1.0));
#284=AXIS2_PLACEMENT_3D('',#281,#282,#283);
#285=PLANE('',#284);
#286=CARTESIAN_POINT('',(91.000000000000014,0.0,11.242640687119218));
#287=VERTEX_POINT('',#286);
#288=CARTESIAN_POINT('',(91.000000000000014,0.0,11.242640687119218));
#289=DIRECTION('',(0.0,0.0,-1.0));
#290=VECTOR('',#289,11.242640687119218);
#291=LINE('',#288,#290);
#292=EDGE_CURVE('',#287,#163,#291,.T.);
#293=ORIENTED_EDGE('',*,*,#292,.T.);
#294=ORIENTED_EDGE('',*,*,#168,.T.);
#295=CARTESIAN_POINT('',(91.000000000000014,42.0,11.242640687119218));
#296=VERTEX_POINT('',#295);
#297=CARTESIAN_POINT('',(91.000000000000014,42.0,11.242640687119218));
#298=DIRECTION('',(0.0,0.0,-1.0));
#299=VECTOR('',#298,11.242640687119218);
#300=LINE('',#297,#299);
#301=EDGE_CURVE('',#296,#155,#300,.T.);
#302=ORIENTED_EDGE('',*,*,#301,.F.);
#303=CARTESIAN_POINT('',(91.000000000000014,0.0,11.242640687119218));
#304=DIRECTION('',(0.0,1.0,0.0));
#305=VECTOR('',#304,42.0);
#306=LINE('',#303,#305);
#307=EDGE_CURVE('',#287,#296,#306,.T.);
#308=ORIENTED_EDGE('',*,*,#307,.F.);
#309=EDGE_LOOP('',(#293,#294,#302,#308));
#310=FACE_OUTER_BOUND('',#309,.T.);
#311=ADVANCED_FACE('',(#310),#285,.T.);
#312=CARTESIAN_POINT('',(11.242640687119305,0.0,91.0));
#313=DIRECTION('',(0.707106781186548,0.0,0.707106781186547));
#314=DIRECTION('',(0.707106781186547,0.0,-0.707106781186548));
#315=AXIS2_PLACEMENT_3D('',#312,#313,#314);
#316=PLANE('',#315);
#317=CARTESIAN_POINT('',(11.242640687119305,0.0,91.0));
#318=VERTEX_POINT('',#317);
#319=CARTESIAN_POINT('',(11.242640687119305,0.0,91.0));
#320=DIRECTION('',(0.707106781186547,0.0,-0.707106781186548));
#321=VECTOR('',#320,112.79393923934005);
#322=LINE('',#319,#321);
#323=EDGE_CURVE('',#318,#287,#322,.T.);
#324=ORIENTED_EDGE('',*,*,#323,.T.);
#325=ORIENTED_EDGE('',*,*,#307,.T.);
#326=CARTESIAN_POINT('',(11.242640687119305,42.0,91.0));
#327=VERTEX_POINT('',#326);
#328=CARTESIAN_POINT('',(11.242640687119305,42.0,91.0));
#329=DIRECTION('',(0.707106781186547,0.0,-0.707106781186548));
#330=VECTOR('',#329,112.79393923934005);
#331=LINE('',#328,#330);
#332=EDGE_CURVE('',#327,#296,#331,.T.);
#333=ORIENTED_EDGE('',*,*,#332,.F.);
#334=CARTESIAN_POINT('',(11.242640687119305,0.0,91.0));
#335=DIRECTION('',(0.0,1.0,0.0));
#336=VECTOR('',#335,42.0);
#337=LINE('',#334,#336);
#338=EDGE_CURVE('',#318,#327,#337,.T.);
#339=ORIENTED_EDGE('',*,*,#338,.F.);
#340=EDGE_LOOP('',(#324,#325,#333,#339));
#341=FACE_OUTER_BOUND('',#340,.T.);
#342=ADVANCED_FACE('',(#341),#316,.T.);
#343=CARTESIAN_POINT('',(0.0,0.0,91.000000000000014));
#344=DIRECTION('',(0.0,0.0,1.0));
#345=DIRECTION('',(1.0,0.0,0.0));
#346=AXIS2_PLACEMENT_3D('',#343,#344,#345);
#347=PLANE('',#346);
#348=CARTESIAN_POINT('',(0.0,0.0,91.000000000000014));
#349=VERTEX_POINT('',#348);
#350=CARTESIAN_POINT('',(0.0,0.0,91.000000000000014));
#351=DIRECTION('',(1.0,0.0,0.0));
#352=VECTOR('',#351,11.242640687119305);
#353=LINE('',#350,#352);
#354=EDGE_CURVE('',#349,#318,#353,.T.);
#355=ORIENTED_EDGE('',*,*,#354,.T.);
#356=ORIENTED_EDGE('',*,*,#338,.T.);
#357=CARTESIAN_POINT('',(0.0,42.0,91.000000000000014));
#358=VERTEX_POINT('',#357);
#359=CARTESIAN_POINT('',(0.0,42.0,91.000000000000014));
#360=DIRECTION('',(1.0,0.0,0.0));
#361=VECTOR('',#360,11.242640687119305);
#362=LINE('',#359,#361);
#363=EDGE_CURVE('',#358,#327,#362,.T.);
#364=ORIENTED_EDGE('',*,*,#363,.F.);
#365=CARTESIAN_POINT('',(0.0,0.0,91.000000000000014));
#366=DIRECTION('',(0.0,1.0,0.0));
#367=VECTOR('',#366,42.0);
#368=LINE('',#365,#367);
#369=EDGE_CURVE('',#349,#358,#368,.T.);
#370=ORIENTED_EDGE('',*,*,#369,.F.);
#371=EDGE_LOOP('',(#355,#356,#364,#370));
#372=FACE_OUTER_BOUND('',#371,.T.);
#373=ADVANCED_FACE('',(#372),#347,.T.);
#374=CARTESIAN_POINT('',(0.0,0.0,88.0));
#375=DIRECTION('',(-1.0,0.0,0.0));
#376=DIRECTION('',(0.0,0.0,1.0));
#377=AXIS2_PLACEMENT_3D('',#374,#375,#376);
#378=PLANE('',#377);
#379=ORIENTED_EDGE('',*,*,#262,.F.);
#380=CARTESIAN_POINT('',(0.0,0.0,88.0));
#381=DIRECTION('',(0.0,0.0,1.0));
#382=VECTOR('',#381,3.000000000000014);
#383=LINE('',#380,#382);
#384=EDGE_CURVE('',#255,#349,#383,.T.);
#385=ORIENTED_EDGE('',*,*,#384,.T.);
#386=ORIENTED_EDGE('',*,*,#369,.T.);
#387=CARTESIAN_POINT('',(0.0,42.0,88.0));
#388=DIRECTION('',(0.0,0.0,1.0));
#389=VECTOR('',#388,3.0);
#390=LINE('',#387,#389);
#391=EDGE_CURVE('',#257,#358,#390,.T.);
#392=ORIENTED_EDGE('',*,*,#391,.F.);
#393=EDGE_LOOP('',(#379,#385,#386,#392));
#394=FACE_OUTER_BOUND('',#393,.T.);
#395=ADVANCED_FACE('',(#394),#378,.T.);
#396=CARTESIAN_POINT('',(49.545945123800088,42.0,49.545945123800088));
#397=DIRECTION('',(0.0,1.0,0.0));
#398=DIRECTION('',(0.0,0.0,1.0));
#399=AXIS2_PLACEMENT_3D('',#396,#397,#398);
#400=PLANE('',#399);
#401=ORIENTED_EDGE('',*,*,#212,.T.);
#402=ORIENTED_EDGE('',*,*,#243,.T.);
#403=ORIENTED_EDGE('',*,*,#268,.T.);
#404=ORIENTED_EDGE('',*,*,#391,.T.);
#405=ORIENTED_EDGE('',*,*,#363,.T.);
#406=ORIENTED_EDGE('',*,*,#332,.T.);
#407=ORIENTED_EDGE('',*,*,#301,.T.);
#408=ORIENTED_EDGE('',*,*,#160,.T.);
#409=EDGE_LOOP('',(#401,#402,#403,#404,#405,#406,#407,#408));
#410=FACE_OUTER_BOUND('',#409,.T.);
#411=ADVANCED_FACE('',(#410),#400,.T.);
#412=CARTESIAN_POINT('',(49.545945123800088,0.0,49.545945123800088));
#413=DIRECTION('',(0.0,1.0,0.0));
#414=DIRECTION('',(0.0,0.0,1.0));
#415=AXIS2_PLACEMENT_3D('',#412,#413,#414);
#416=PLANE('',#415);
#417=ORIENTED_EDGE('',*,*,#219,.T.);
#418=ORIENTED_EDGE('',*,*,#174,.F.);
#419=ORIENTED_EDGE('',*,*,#292,.F.);
#420=ORIENTED_EDGE('',*,*,#323,.F.);
#421=ORIENTED_EDGE('',*,*,#354,.F.);
#422=ORIENTED_EDGE('',*,*,#384,.F.);
#423=ORIENTED_EDGE('',*,*,#276,.T.);
#424=ORIENTED_EDGE('',*,*,#81,.T.);
#425=ORIENTED_EDGE('',*,*,#119,.T.);
#426=EDGE_LOOP('',(#417,#418,#419,#420,#421,#422,#423,#424,#425));
#427=FACE_OUTER_BOUND('',#426,.T.);
#428=ADVANCED_FACE('',(#427),#416,.F.);
#429=CLOSED_SHELL('',(#107,#138,#178,#194,#224,#248,#280,#311,#342,#373,#395,#411,#428));
#430=MANIFOLD_SOLID_BREP('Bry\X2\0142\X0\a1',#429);
#431=COLOUR_RGB('G\X2\FFFD\X0\adkie \X2\FFFD\X0\ czarne',0.019999999552965,0.019999999552965,0.019999999552965);
#432=FILL_AREA_STYLE_COLOUR('G\X2\FFFD\X0\adkie \X2\FFFD\X0\ czarne',#431);
#433=FILL_AREA_STYLE('G\X2\FFFD\X0\adkie \X2\FFFD\X0\ czarne',(#432));
#434=SURFACE_STYLE_FILL_AREA(#433);
#435=SURFACE_SIDE_STYLE('G\X2\FFFD\X0\adkie \X2\FFFD\X0\ czarne',(#434));
#436=SURFACE_STYLE_USAGE(.BOTH.,#435);
#437=PRESENTATION_STYLE_ASSIGNMENT((#436));
#438=STYLED_ITEM('',(#437),#430);
#439=MECHANICAL_DESIGN_GEOMETRIC_PRESENTATION_REPRESENTATION('',(#438),#36);
#440=ADVANCED_BREP_SHAPE_REPRESENTATION('ABSR',(#430),#36);
#441=SHAPE_REPRESENTATION_RELATIONSHIP('SRR','None',#440,#41);
ENDSEC;
END-ISO-10303-21;
