ISO-10303-21;
HEADER;
/****************************************************************
 * Generated by software with PDElib inside                    *
 * PDElib Version v51a, created Wed 11/30/2011                  *
 * ITI Transcendata (http://www.transcendata.com/)              *
 ****************************************************************/
FILE_DESCRIPTION((''),'2;1');
FILE_NAME('\\\\WIN\\Rysunki\\Inventor\\@System profili aluminiowych\\System profili aluminiowych STEP\\AR3609 za\X2\015B\X0\lepka do k\X2\0105\X0\townika 30x60.stp','2016-04-20T15:05:19',('Konstruktor II'),(''),'Autodesk Inventor 2013','Autodesk Inventor 2013','');
FILE_SCHEMA(('AUTOMOTIVE_DESIGN { 1 0 10303 214 1 1 1 1 }'));
ENDSEC;
DATA;
#5=APPLICATION_CONTEXT('automotive design');
#6=APPLICATION_PROTOCOL_DEFINITION('International Standard','automotive_design',2001,#5);
#7=PRODUCT_CONTEXT('',#5,'mechanical');
#8=PRODUCT('AR3609 za\X2\015B\X0\lepka do k\X2\0105\X0\townika 30x60','AR3609 za\X2\015B\X0\lepka do k\X2\0105\X0\townika 30x60',$,(#7));
#9=PRODUCT_RELATED_PRODUCT_CATEGORY('part',$,(#8));
#10=PRODUCT_DEFINITION_FORMATION('',$,#8);
#11=PRODUCT_DEFINITION_CONTEXT('part definition',#5,'design');
#12=PRODUCT_DEFINITION('',$,#10,#11);
#18=(NAMED_UNIT(*)PLANE_ANGLE_UNIT()SI_UNIT($,.RADIAN.));
#19=DIMENSIONAL_EXPONENTS(0.0,0.0,0.0,0.0,0.0,0.0,0.0);
#20=PLANE_ANGLE_MEASURE_WITH_UNIT(PLANE_ANGLE_MEASURE(0.0174532925),#18);
#24=(CONVERSION_BASED_UNIT('DEGREE',#20)NAMED_UNIT(#19)PLANE_ANGLE_UNIT());
#28=(NAMED_UNIT(*)SI_UNIT($,.STERADIAN.)SOLID_ANGLE_UNIT());
#32=(LENGTH_UNIT()NAMED_UNIT(*)SI_UNIT(.MILLI.,.METRE.));
#34=UNCERTAINTY_MEASURE_WITH_UNIT(LENGTH_MEASURE(0.01),#32,'DISTANCE_ACCURACY_VALUE','');
#36=(GEOMETRIC_REPRESENTATION_CONTEXT(3)GLOBAL_UNCERTAINTY_ASSIGNED_CONTEXT((#34))GLOBAL_UNIT_ASSIGNED_CONTEXT((#24,#28,#32))REPRESENTATION_CONTEXT('None','None'));
#37=AXIS2_PLACEMENT_3D('',#38,#39,#40);
#38=CARTESIAN_POINT('',(0.0,0.0,0.0));
#39=DIRECTION('',(0.0,0.0,1.0));
#40=DIRECTION('',(1.0,0.0,0.0));
#41=SHAPE_REPRESENTATION('',(#37),#36);
#42=PRODUCT_DEFINITION_SHAPE('','',#12);
#43=SHAPE_DEFINITION_REPRESENTATION(#42,#41);
#49=(NAMED_UNIT(*)PLANE_ANGLE_UNIT()SI_UNIT($,.RADIAN.));
#50=DIMENSIONAL_EXPONENTS(0.0,0.0,0.0,0.0,0.0,0.0,0.0);
#51=PLANE_ANGLE_MEASURE_WITH_UNIT(PLANE_ANGLE_MEASURE(0.0174532925),#49);
#55=(CONVERSION_BASED_UNIT('DEGREE',#51)NAMED_UNIT(#50)PLANE_ANGLE_UNIT());
#59=(NAMED_UNIT(*)SI_UNIT($,.STERADIAN.)SOLID_ANGLE_UNIT());
#63=(LENGTH_UNIT()NAMED_UNIT(*)SI_UNIT(.MILLI.,.METRE.));
#65=UNCERTAINTY_MEASURE_WITH_UNIT(LENGTH_MEASURE(0.000001),#63,'DISTANCE_ACCURACY_VALUE','');
#67=(GEOMETRIC_REPRESENTATION_CONTEXT(3)GLOBAL_UNCERTAINTY_ASSIGNED_CONTEXT((#65))GLOBAL_UNIT_ASSIGNED_CONTEXT((#55,#59,#63))REPRESENTATION_CONTEXT('','3D'));
#68=CARTESIAN_POINT('',(55.0,0.0,1.221245E-014));
#69=DIRECTION('',(-1.0,0.0,0.0));
#70=DIRECTION('',(0.0,1.0,0.0));
#71=AXIS2_PLACEMENT_3D('',#68,#69,#70);
#72=PLANE('',#71);
#73=CARTESIAN_POINT('',(55.0,0.0,-6.735557E-015));
#74=VERTEX_POINT('',#73);
#75=CARTESIAN_POINT('',(55.0,28.000000000000004,-6.735557E-015));
#76=VERTEX_POINT('',#75);
#77=CARTESIAN_POINT('',(55.0,0.0,-6.735557E-015));
#78=DIRECTION('',(0.0,1.0,0.0));
#79=VECTOR('',#78,28.000000000000004);
#80=LINE('',#77,#79);
#81=EDGE_CURVE('',#74,#76,#80,.T.);
#82=ORIENTED_EDGE('',*,*,#81,.F.);
#83=CARTESIAN_POINT('',(55.0,0.0,-5.999999999999989));
#84=VERTEX_POINT('',#83);
#85=CARTESIAN_POINT('',(55.0,0.0,1.221245E-014));
#86=DIRECTION('',(0.0,0.0,-1.0));
#87=VECTOR('',#86,6.000000000000001);
#88=LINE('',#85,#87);
#89=EDGE_CURVE('',#74,#84,#88,.T.);
#90=ORIENTED_EDGE('',*,*,#89,.T.);
#91=CARTESIAN_POINT('',(55.0,28.000000000000004,-5.999999999999989));
#92=VERTEX_POINT('',#91);
#93=CARTESIAN_POINT('',(55.0,0.0,-5.999999999999989));
#94=DIRECTION('',(0.0,1.0,0.0));
#95=VECTOR('',#94,28.000000000000004);
#96=LINE('',#93,#95);
#97=EDGE_CURVE('',#84,#92,#96,.T.);
#98=ORIENTED_EDGE('',*,*,#97,.T.);
#99=CARTESIAN_POINT('',(55.0,28.000000000000004,1.221245E-014));
#100=DIRECTION('',(0.0,0.0,-1.0));
#101=VECTOR('',#100,6.000000000000001);
#102=LINE('',#99,#101);
#103=EDGE_CURVE('',#76,#92,#102,.T.);
#104=ORIENTED_EDGE('',*,*,#103,.F.);
#105=EDGE_LOOP('',(#82,#90,#98,#104));
#106=FACE_OUTER_BOUND('',#105,.T.);
#107=ADVANCED_FACE('',(#106),#72,.F.);
#108=CARTESIAN_POINT('',(52.0,28.000000000000004,1.154632E-014));
#109=DIRECTION('',(1.0,0.0,0.0));
#110=DIRECTION('',(0.0,-1.0,0.0));
#111=AXIS2_PLACEMENT_3D('',#108,#109,#110);
#112=PLANE('',#111);
#113=CARTESIAN_POINT('',(52.0,2.000000000000002,-6.368163E-015));
#114=VERTEX_POINT('',#113);
#115=CARTESIAN_POINT('',(52.0,28.000000000000004,-6.368163E-015));
#116=VERTEX_POINT('',#115);
#117=CARTESIAN_POINT('',(51.999999999999993,2.000000000000002,-6.383782E-015));
#118=DIRECTION('',(0.0,1.0,0.0));
#119=VECTOR('',#118,26.0);
#120=LINE('',#117,#119);
#121=EDGE_CURVE('',#114,#116,#120,.T.);
#122=ORIENTED_EDGE('',*,*,#121,.T.);
#123=CARTESIAN_POINT('',(52.0,28.000000000000004,-5.999999999999989));
#124=VERTEX_POINT('',#123);
#125=CARTESIAN_POINT('',(52.0,28.000000000000004,1.154632E-014));
#126=DIRECTION('',(0.0,0.0,-1.0));
#127=VECTOR('',#126,6.000000000000001);
#128=LINE('',#125,#127);
#129=EDGE_CURVE('',#116,#124,#128,.T.);
#130=ORIENTED_EDGE('',*,*,#129,.T.);
#131=CARTESIAN_POINT('',(52.0,0.0,-5.999999999999989));
#132=VERTEX_POINT('',#131);
#133=CARTESIAN_POINT('',(52.0,28.000000000000004,-5.999999999999989));
#134=DIRECTION('',(0.0,-1.0,0.0));
#135=VECTOR('',#134,28.000000000000004);
#136=LINE('',#133,#135);
#137=EDGE_CURVE('',#124,#132,#136,.T.);
#138=ORIENTED_EDGE('',*,*,#137,.T.);
#139=CARTESIAN_POINT('',(52.0,0.0,1.154632E-014));
#140=VERTEX_POINT('',#139);
#141=CARTESIAN_POINT('',(52.0,0.0,1.154632E-014));
#142=DIRECTION('',(0.0,0.0,-1.0));
#143=VECTOR('',#142,6.000000000000001);
#144=LINE('',#141,#143);
#145=EDGE_CURVE('',#140,#132,#144,.T.);
#146=ORIENTED_EDGE('',*,*,#145,.F.);
#147=CARTESIAN_POINT('',(51.999999999999993,2.000000000000002,-6.368163E-015));
#148=DIRECTION('',(0.0,-1.0,0.0));
#149=VECTOR('',#148,2.000000000000002);
#150=LINE('',#147,#149);
#151=EDGE_CURVE('',#114,#140,#150,.T.);
#152=ORIENTED_EDGE('',*,*,#151,.F.);
#153=EDGE_LOOP('',(#122,#130,#138,#146,#152));
#154=FACE_OUTER_BOUND('',#153,.T.);
#155=ADVANCED_FACE('',(#154),#112,.F.);
#156=CARTESIAN_POINT('',(53.500000000000007,14.0,-5.999999999999989));
#157=DIRECTION('',(0.0,0.0,-1.0));
#158=DIRECTION('',(-1.0,0.0,0.0));
#159=AXIS2_PLACEMENT_3D('',#156,#157,#158);
#160=PLANE('',#159);
#161=ORIENTED_EDGE('',*,*,#137,.F.);
#162=CARTESIAN_POINT('',(55.0,28.000000000000004,-5.999999999999989));
#163=DIRECTION('',(-1.0,0.0,0.0));
#164=VECTOR('',#163,3.0);
#165=LINE('',#162,#164);
#166=EDGE_CURVE('',#92,#124,#165,.T.);
#167=ORIENTED_EDGE('',*,*,#166,.F.);
#168=ORIENTED_EDGE('',*,*,#97,.F.);
#169=CARTESIAN_POINT('',(52.0,0.0,-5.999999999999989));
#170=DIRECTION('',(1.0,0.0,0.0));
#171=VECTOR('',#170,3.0);
#172=LINE('',#169,#171);
#173=EDGE_CURVE('',#132,#84,#172,.T.);
#174=ORIENTED_EDGE('',*,*,#173,.F.);
#175=EDGE_LOOP('',(#161,#167,#168,#174));
#176=FACE_OUTER_BOUND('',#175,.T.);
#177=ADVANCED_FACE('',(#176),#160,.T.);
#178=CARTESIAN_POINT('',(0.0,0.0,55.0));
#179=DIRECTION('',(0.0,0.0,1.0));
#180=DIRECTION('',(0.0,1.0,0.0));
#181=AXIS2_PLACEMENT_3D('',#178,#179,#180);
#182=PLANE('',#181);
#183=CARTESIAN_POINT('',(0.0,0.0,55.0));
#184=VERTEX_POINT('',#183);
#185=CARTESIAN_POINT('',(0.0,28.000000000000004,55.0));
#186=VERTEX_POINT('',#185);
#187=CARTESIAN_POINT('',(0.0,0.0,55.0));
#188=DIRECTION('',(0.0,1.0,0.0));
#189=VECTOR('',#188,28.000000000000004);
#190=LINE('',#187,#189);
#191=EDGE_CURVE('',#184,#186,#190,.T.);
#192=ORIENTED_EDGE('',*,*,#191,.T.);
#193=CARTESIAN_POINT('',(-6.000000000000001,28.000000000000004,55.0));
#194=VERTEX_POINT('',#193);
#195=CARTESIAN_POINT('',(0.0,28.000000000000004,55.0));
#196=DIRECTION('',(-1.0,0.0,0.0));
#197=VECTOR('',#196,6.000000000000001);
#198=LINE('',#195,#197);
#199=EDGE_CURVE('',#186,#194,#198,.T.);
#200=ORIENTED_EDGE('',*,*,#199,.T.);
#201=CARTESIAN_POINT('',(-6.000000000000001,0.0,55.0));
#202=VERTEX_POINT('',#201);
#203=CARTESIAN_POINT('',(-6.000000000000001,0.0,55.0));
#204=DIRECTION('',(0.0,1.0,0.0));
#205=VECTOR('',#204,28.000000000000004);
#206=LINE('',#203,#205);
#207=EDGE_CURVE('',#202,#194,#206,.T.);
#208=ORIENTED_EDGE('',*,*,#207,.F.);
#209=CARTESIAN_POINT('',(0.0,0.0,55.0));
#210=DIRECTION('',(-1.0,0.0,0.0));
#211=VECTOR('',#210,6.000000000000001);
#212=LINE('',#209,#211);
#213=EDGE_CURVE('',#184,#202,#212,.T.);
#214=ORIENTED_EDGE('',*,*,#213,.F.);
#215=EDGE_LOOP('',(#192,#200,#208,#214));
#216=FACE_OUTER_BOUND('',#215,.T.);
#217=ADVANCED_FACE('',(#216),#182,.T.);
#218=CARTESIAN_POINT('',(0.0,28.000000000000004,52.0));
#219=DIRECTION('',(0.0,0.0,-1.0));
#220=DIRECTION('',(0.0,-1.0,0.0));
#221=AXIS2_PLACEMENT_3D('',#218,#219,#220);
#222=PLANE('',#221);
#223=CARTESIAN_POINT('',(0.0,28.000000000000004,52.0));
#224=VERTEX_POINT('',#223);
#225=CARTESIAN_POINT('',(0.0,2.000000000000002,52.0));
#226=VERTEX_POINT('',#225);
#227=CARTESIAN_POINT('',(0.0,28.000000000000004,52.0));
#228=DIRECTION('',(0.0,-1.0,0.0));
#229=VECTOR('',#228,26.0);
#230=LINE('',#227,#229);
#231=EDGE_CURVE('',#224,#226,#230,.T.);
#232=ORIENTED_EDGE('',*,*,#231,.T.);
#233=CARTESIAN_POINT('',(0.0,0.0,52.0));
#234=VERTEX_POINT('',#233);
#235=CARTESIAN_POINT('',(0.0,0.0,52.0));
#236=DIRECTION('',(0.0,1.0,0.0));
#237=VECTOR('',#236,2.000000000000002);
#238=LINE('',#235,#237);
#239=EDGE_CURVE('',#234,#226,#238,.T.);
#240=ORIENTED_EDGE('',*,*,#239,.F.);
#241=CARTESIAN_POINT('',(-6.000000000000001,0.0,52.0));
#242=VERTEX_POINT('',#241);
#243=CARTESIAN_POINT('',(0.0,0.0,52.0));
#244=DIRECTION('',(-1.0,0.0,0.0));
#245=VECTOR('',#244,6.000000000000001);
#246=LINE('',#243,#245);
#247=EDGE_CURVE('',#234,#242,#246,.T.);
#248=ORIENTED_EDGE('',*,*,#247,.T.);
#249=CARTESIAN_POINT('',(-6.000000000000001,28.000000000000004,52.0));
#250=VERTEX_POINT('',#249);
#251=CARTESIAN_POINT('',(-6.000000000000001,28.000000000000004,52.0));
#252=DIRECTION('',(0.0,-1.0,0.0));
#253=VECTOR('',#252,28.000000000000004);
#254=LINE('',#251,#253);
#255=EDGE_CURVE('',#250,#242,#254,.T.);
#256=ORIENTED_EDGE('',*,*,#255,.F.);
#257=CARTESIAN_POINT('',(0.0,28.000000000000004,52.0));
#258=DIRECTION('',(-1.0,0.0,0.0));
#259=VECTOR('',#258,6.000000000000001);
#260=LINE('',#257,#259);
#261=EDGE_CURVE('',#224,#250,#260,.T.);
#262=ORIENTED_EDGE('',*,*,#261,.F.);
#263=EDGE_LOOP('',(#232,#240,#248,#256,#262));
#264=FACE_OUTER_BOUND('',#263,.T.);
#265=ADVANCED_FACE('',(#264),#222,.T.);
#266=CARTESIAN_POINT('',(-6.000000000000001,14.0,53.500000000000007));
#267=DIRECTION('',(1.0,0.0,0.0));
#268=DIRECTION('',(0.0,0.0,-1.0));
#269=AXIS2_PLACEMENT_3D('',#266,#267,#268);
#270=PLANE('',#269);
#271=ORIENTED_EDGE('',*,*,#255,.T.);
#272=CARTESIAN_POINT('',(-6.000000000000001,0.0,52.0));
#273=DIRECTION('',(0.0,0.0,1.0));
#274=VECTOR('',#273,3.0);
#275=LINE('',#272,#274);
#276=EDGE_CURVE('',#242,#202,#275,.T.);
#277=ORIENTED_EDGE('',*,*,#276,.T.);
#278=ORIENTED_EDGE('',*,*,#207,.T.);
#279=CARTESIAN_POINT('',(-6.000000000000001,28.000000000000004,55.0));
#280=DIRECTION('',(0.0,0.0,-1.0));
#281=VECTOR('',#280,3.0);
#282=LINE('',#279,#281);
#283=EDGE_CURVE('',#194,#250,#282,.T.);
#284=ORIENTED_EDGE('',*,*,#283,.T.);
#285=EDGE_LOOP('',(#271,#277,#278,#284));
#286=FACE_OUTER_BOUND('',#285,.T.);
#287=ADVANCED_FACE('',(#286),#270,.F.);
#288=CARTESIAN_POINT('',(0.0,0.0,0.0));
#289=DIRECTION('',(-1.0,0.0,0.0));
#290=DIRECTION('',(0.0,0.0,1.0));
#291=AXIS2_PLACEMENT_3D('',#288,#289,#290);
#292=PLANE('',#291);
#293=ORIENTED_EDGE('',*,*,#239,.T.);
#294=CARTESIAN_POINT('',(0.0,2.000000000000002,0.0));
#295=VERTEX_POINT('',#294);
#296=CARTESIAN_POINT('',(0.0,2.000000000000006,52.0));
#297=DIRECTION('',(0.0,0.0,-1.0));
#298=VECTOR('',#297,52.0);
#299=LINE('',#296,#298);
#300=EDGE_CURVE('',#226,#295,#299,.T.);
#301=ORIENTED_EDGE('',*,*,#300,.T.);
#302=CARTESIAN_POINT('',(0.0,0.0,0.0));
#303=VERTEX_POINT('',#302);
#304=CARTESIAN_POINT('',(0.0,0.0,0.0));
#305=DIRECTION('',(0.0,1.0,0.0));
#306=VECTOR('',#305,2.000000000000002);
#307=LINE('',#304,#306);
#308=EDGE_CURVE('',#303,#295,#307,.T.);
#309=ORIENTED_EDGE('',*,*,#308,.F.);
#310=CARTESIAN_POINT('',(0.0,0.0,52.0));
#311=DIRECTION('',(0.0,0.0,-1.0));
#312=VECTOR('',#311,52.0);
#313=LINE('',#310,#312);
#314=EDGE_CURVE('',#234,#303,#313,.T.);
#315=ORIENTED_EDGE('',*,*,#314,.F.);
#316=EDGE_LOOP('',(#293,#301,#309,#315));
#317=FACE_OUTER_BOUND('',#316,.T.);
#318=ADVANCED_FACE('',(#317),#292,.T.);
#319=CARTESIAN_POINT('',(52.0,28.000000000000004,-8.881784E-015));
#320=DIRECTION('',(0.707106781186548,0.0,0.707106781186547));
#321=DIRECTION('',(-0.707106781186547,0.0,0.707106781186548));
#322=AXIS2_PLACEMENT_3D('',#319,#320,#321);
#323=PLANE('',#322);
#324=CARTESIAN_POINT('',(52.0,28.000000000000004,-7.105427E-015));
#325=DIRECTION('',(-0.707106781186547,0.0,0.707106781186547));
#326=VECTOR('',#325,73.539105243400954);
#327=LINE('',#324,#326);
#328=EDGE_CURVE('',#116,#224,#327,.T.);
#329=ORIENTED_EDGE('',*,*,#328,.F.);
#330=ORIENTED_EDGE('',*,*,#121,.F.);
#331=CARTESIAN_POINT('',(52.0,2.000000000000002,-1.421085E-014));
#332=DIRECTION('',(-0.707106781186547,0.0,0.707106781186548));
#333=VECTOR('',#332,73.539105243400954);
#334=LINE('',#331,#333);
#335=EDGE_CURVE('',#114,#226,#334,.T.);
#336=ORIENTED_EDGE('',*,*,#335,.T.);
#337=ORIENTED_EDGE('',*,*,#231,.F.);
#338=EDGE_LOOP('',(#329,#330,#336,#337));
#339=FACE_OUTER_BOUND('',#338,.T.);
#340=ADVANCED_FACE('',(#339),#323,.F.);
#341=CARTESIAN_POINT('',(18.384776310850238,2.000000000000006,18.384776310850235));
#342=DIRECTION('',(0.0,1.0,0.0));
#343=DIRECTION('',(0.0,0.0,1.0));
#344=AXIS2_PLACEMENT_3D('',#341,#342,#343);
#345=PLANE('',#344);
#346=ORIENTED_EDGE('',*,*,#300,.F.);
#347=ORIENTED_EDGE('',*,*,#335,.F.);
#348=CARTESIAN_POINT('',(0.0,2.000000000000006,5.262947E-017));
#349=DIRECTION('',(1.0,0.0,0.0));
#350=VECTOR('',#349,52.000000000000007);
#351=LINE('',#348,#350);
#352=EDGE_CURVE('',#295,#114,#351,.T.);
#353=ORIENTED_EDGE('',*,*,#352,.F.);
#354=EDGE_LOOP('',(#346,#347,#353));
#355=FACE_OUTER_BOUND('',#354,.T.);
#356=ADVANCED_FACE('',(#355),#345,.T.);
#357=CARTESIAN_POINT('',(19.445436482630058,28.000000000000004,19.445436482630054));
#358=DIRECTION('',(0.0,1.0,0.0));
#359=DIRECTION('',(0.0,0.0,1.0));
#360=AXIS2_PLACEMENT_3D('',#357,#358,#359);
#361=PLANE('',#360);
#362=ORIENTED_EDGE('',*,*,#328,.T.);
#363=ORIENTED_EDGE('',*,*,#261,.T.);
#364=ORIENTED_EDGE('',*,*,#283,.F.);
#365=ORIENTED_EDGE('',*,*,#199,.F.);
#366=CARTESIAN_POINT('',(0.0,28.000000000000004,55.0));
#367=DIRECTION('',(0.707106781186547,0.0,-0.707106781186548));
#368=VECTOR('',#367,77.781745930520231);
#369=LINE('',#366,#368);
#370=EDGE_CURVE('',#186,#76,#369,.T.);
#371=ORIENTED_EDGE('',*,*,#370,.T.);
#372=ORIENTED_EDGE('',*,*,#103,.T.);
#373=ORIENTED_EDGE('',*,*,#166,.T.);
#374=ORIENTED_EDGE('',*,*,#129,.F.);
#375=EDGE_LOOP('',(#362,#363,#364,#365,#371,#372,#373,#374));
#376=FACE_OUTER_BOUND('',#375,.T.);
#377=ADVANCED_FACE('',(#376),#361,.T.);
#378=CARTESIAN_POINT('',(0.0,0.0,55.0));
#379=DIRECTION('',(0.707106781186548,0.0,0.707106781186547));
#380=DIRECTION('',(0.707106781186547,0.0,-0.707106781186548));
#381=AXIS2_PLACEMENT_3D('',#378,#379,#380);
#382=PLANE('',#381);
#383=CARTESIAN_POINT('',(55.0,0.0,-6.735557E-015));
#384=DIRECTION('',(-0.707106781186547,0.0,0.707106781186548));
#385=VECTOR('',#384,77.781745930520231);
#386=LINE('',#383,#385);
#387=EDGE_CURVE('',#74,#184,#386,.T.);
#388=ORIENTED_EDGE('',*,*,#387,.F.);
#389=ORIENTED_EDGE('',*,*,#81,.T.);
#390=ORIENTED_EDGE('',*,*,#370,.F.);
#391=ORIENTED_EDGE('',*,*,#191,.F.);
#392=EDGE_LOOP('',(#388,#389,#390,#391));
#393=FACE_OUTER_BOUND('',#392,.T.);
#394=ADVANCED_FACE('',(#393),#382,.T.);
#395=CARTESIAN_POINT('',(55.0,0.0,-6.735557E-015));
#396=DIRECTION('',(0.0,0.0,-1.0));
#397=DIRECTION('',(-1.0,0.0,0.0));
#398=AXIS2_PLACEMENT_3D('',#395,#396,#397);
#399=PLANE('',#398);
#400=ORIENTED_EDGE('',*,*,#151,.T.);
#401=CARTESIAN_POINT('',(0.0,0.0,0.0));
#402=DIRECTION('',(1.0,0.0,0.0));
#403=VECTOR('',#402,52.0);
#404=LINE('',#401,#403);
#405=EDGE_CURVE('',#303,#140,#404,.T.);
#406=ORIENTED_EDGE('',*,*,#405,.F.);
#407=ORIENTED_EDGE('',*,*,#308,.T.);
#408=ORIENTED_EDGE('',*,*,#352,.T.);
#409=EDGE_LOOP('',(#400,#406,#407,#408));
#410=FACE_OUTER_BOUND('',#409,.T.);
#411=ADVANCED_FACE('',(#410),#399,.T.);
#412=CARTESIAN_POINT('',(19.445436482630058,0.0,19.445436482630054));
#413=DIRECTION('',(0.0,1.0,0.0));
#414=DIRECTION('',(0.0,0.0,1.0));
#415=AXIS2_PLACEMENT_3D('',#412,#413,#414);
#416=PLANE('',#415);
#417=ORIENTED_EDGE('',*,*,#405,.T.);
#418=ORIENTED_EDGE('',*,*,#145,.T.);
#419=ORIENTED_EDGE('',*,*,#173,.T.);
#420=ORIENTED_EDGE('',*,*,#89,.F.);
#421=ORIENTED_EDGE('',*,*,#387,.T.);
#422=ORIENTED_EDGE('',*,*,#213,.T.);
#423=ORIENTED_EDGE('',*,*,#276,.F.);
#424=ORIENTED_EDGE('',*,*,#247,.F.);
#425=ORIENTED_EDGE('',*,*,#314,.T.);
#426=EDGE_LOOP('',(#417,#418,#419,#420,#421,#422,#423,#424,#425));
#427=FACE_OUTER_BOUND('',#426,.T.);
#428=ADVANCED_FACE('',(#427),#416,.F.);
#429=CLOSED_SHELL('',(#107,#155,#177,#217,#265,#287,#318,#340,#356,#377,#394,#411,#428));
#430=MANIFOLD_SOLID_BREP('Bry\X2\0142\X0\a1',#429);
#431=COLOUR_RGB('G\X2\FFFD\X0\adkie \X2\FFFD\X0\ czarne',0.019999999552965,0.019999999552965,0.019999999552965);
#432=FILL_AREA_STYLE_COLOUR('G\X2\FFFD\X0\adkie \X2\FFFD\X0\ czarne',#431);
#433=FILL_AREA_STYLE('G\X2\FFFD\X0\adkie \X2\FFFD\X0\ czarne',(#432));
#434=SURFACE_STYLE_FILL_AREA(#433);
#435=SURFACE_SIDE_STYLE('G\X2\FFFD\X0\adkie \X2\FFFD\X0\ czarne',(#434));
#436=SURFACE_STYLE_USAGE(.BOTH.,#435);
#437=PRESENTATION_STYLE_ASSIGNMENT((#436));
#438=STYLED_ITEM('',(#437),#430);
#439=MECHANICAL_DESIGN_GEOMETRIC_PRESENTATION_REPRESENTATION('',(#438),#36);
#440=ADVANCED_BREP_SHAPE_REPRESENTATION('ABSR',(#430),#36);
#441=SHAPE_REPRESENTATION_RELATIONSHIP('SRR','None',#440,#41);
ENDSEC;
END-ISO-10303-21;
