ISO-10303-21;
HEADER;
/****************************************************************
 * Generated by software with PDElib inside                    *
 * PDElib Version v51a, created Wed 11/30/2011                  *
 * ITI Transcendata (http://www.transcendata.com/)              *
 ****************************************************************/
FILE_DESCRIPTION((''),'2;1');
FILE_NAME('\\\\WIN\\Rysunki\\Inventor\\@System profili aluminiowych\\System modeli aluminiowych STEP ARMA\\AR3553.stp','2016-12-20T12:48:35',('Konstruktor II'),(''),'Autodesk Inventor 2013','Autodesk Inventor 2013','');
FILE_SCHEMA(('AUTOMOTIVE_DESIGN { 1 0 10303 214 1 1 1 1 }'));
ENDSEC;
DATA;
#5=APPLICATION_CONTEXT('automotive design');
#6=APPLICATION_PROTOCOL_DEFINITION('International Standard','automotive_design',2001,#5);
#7=PRODUCT_CONTEXT('',#5,'mechanical');
#8=PRODUCT('AR3553','AR3553',$,(#7));
#9=PRODUCT_RELATED_PRODUCT_CATEGORY('part',$,(#8));
#10=PRODUCT_DEFINITION_FORMATION('',$,#8);
#11=PRODUCT_DEFINITION_CONTEXT('part definition',#5,'design');
#12=PRODUCT_DEFINITION('',$,#10,#11);
#18=(NAMED_UNIT(*)PLANE_ANGLE_UNIT()SI_UNIT($,.RADIAN.));
#19=DIMENSIONAL_EXPONENTS(0.0,0.0,0.0,0.0,0.0,0.0,0.0);
#20=PLANE_ANGLE_MEASURE_WITH_UNIT(PLANE_ANGLE_MEASURE(0.0174532925),#18);
#24=(CONVERSION_BASED_UNIT('DEGREE',#20)NAMED_UNIT(#19)PLANE_ANGLE_UNIT());
#28=(NAMED_UNIT(*)SI_UNIT($,.STERADIAN.)SOLID_ANGLE_UNIT());
#32=(LENGTH_UNIT()NAMED_UNIT(*)SI_UNIT(.MILLI.,.METRE.));
#34=UNCERTAINTY_MEASURE_WITH_UNIT(LENGTH_MEASURE(0.01),#32,'DISTANCE_ACCURACY_VALUE','');
#36=(GEOMETRIC_REPRESENTATION_CONTEXT(3)GLOBAL_UNCERTAINTY_ASSIGNED_CONTEXT((#34))GLOBAL_UNIT_ASSIGNED_CONTEXT((#24,#28,#32))REPRESENTATION_CONTEXT('None','None'));
#37=AXIS2_PLACEMENT_3D('',#38,#39,#40);
#38=CARTESIAN_POINT('',(0.0,0.0,0.0));
#39=DIRECTION('',(0.0,0.0,1.0));
#40=DIRECTION('',(1.0,0.0,0.0));
#41=SHAPE_REPRESENTATION('',(#37),#36);
#42=PRODUCT_DEFINITION_SHAPE('','',#12);
#43=SHAPE_DEFINITION_REPRESENTATION(#42,#41);
#49=(NAMED_UNIT(*)PLANE_ANGLE_UNIT()SI_UNIT($,.RADIAN.));
#50=DIMENSIONAL_EXPONENTS(0.0,0.0,0.0,0.0,0.0,0.0,0.0);
#51=PLANE_ANGLE_MEASURE_WITH_UNIT(PLANE_ANGLE_MEASURE(0.0174532925),#49);
#55=(CONVERSION_BASED_UNIT('DEGREE',#51)NAMED_UNIT(#50)PLANE_ANGLE_UNIT());
#59=(NAMED_UNIT(*)SI_UNIT($,.STERADIAN.)SOLID_ANGLE_UNIT());
#63=(LENGTH_UNIT()NAMED_UNIT(*)SI_UNIT(.MILLI.,.METRE.));
#65=UNCERTAINTY_MEASURE_WITH_UNIT(LENGTH_MEASURE(0.000001),#63,'DISTANCE_ACCURACY_VALUE','');
#67=(GEOMETRIC_REPRESENTATION_CONTEXT(3)GLOBAL_UNCERTAINTY_ASSIGNED_CONTEXT((#65))GLOBAL_UNIT_ASSIGNED_CONTEXT((#55,#59,#63))REPRESENTATION_CONTEXT('','3D'));
#68=CARTESIAN_POINT('',(-14.999999999999991,15.0,4.000000000000001));
#69=DIRECTION('',(0.0,0.0,1.0));
#70=DIRECTION('',(-1.0,0.0,0.0));
#71=AXIS2_PLACEMENT_3D('',#68,#69,#70);
#72=CONICAL_SURFACE('',#71,6.500000000000002,44.999999999999993);
#73=CARTESIAN_POINT('',(-10.499999999999989,15.0,2.000000000000001));
#74=VERTEX_POINT('',#73);
#75=CARTESIAN_POINT('',(-14.999999999999991,15.0,2.000000000000001));
#76=DIRECTION('',(0.0,0.0,-1.0));
#77=DIRECTION('',(-1.0,0.0,0.0));
#78=AXIS2_PLACEMENT_3D('',#75,#76,#77);
#79=CIRCLE('',#78,4.500000000000001);
#80=EDGE_CURVE('',#74,#74,#79,.T.);
#81=ORIENTED_EDGE('',*,*,#80,.T.);
#82=EDGE_LOOP('',(#81));
#83=FACE_OUTER_BOUND('',#82,.T.);
#84=CARTESIAN_POINT('',(-6.49999999999999,15.0,6.000000000000001));
#85=VERTEX_POINT('',#84);
#86=CARTESIAN_POINT('',(-14.999999999999991,15.0,6.000000000000001));
#87=DIRECTION('',(0.0,0.0,1.0));
#88=DIRECTION('',(-1.0,0.0,0.0));
#89=AXIS2_PLACEMENT_3D('',#86,#87,#88);
#90=CIRCLE('',#89,8.5);
#91=EDGE_CURVE('',#85,#85,#90,.T.);
#92=ORIENTED_EDGE('',*,*,#91,.T.);
#93=EDGE_LOOP('',(#92));
#94=FACE_BOUND('',#93,.T.);
#95=ADVANCED_FACE('',(#83,#94),#72,.F.);
#96=CARTESIAN_POINT('',(-14.999999999999991,15.0,6.000000000000001));
#97=DIRECTION('',(0.0,0.0,-1.0));
#98=DIRECTION('',(-1.0,0.0,0.0));
#99=AXIS2_PLACEMENT_3D('',#96,#97,#98);
#100=CYLINDRICAL_SURFACE('',#99,4.500000000000001);
#101=CARTESIAN_POINT('',(-10.499999999999989,15.0,0.0));
#102=VERTEX_POINT('',#101);
#103=CARTESIAN_POINT('',(-14.999999999999991,15.0,0.0));
#104=DIRECTION('',(0.0,0.0,1.0));
#105=DIRECTION('',(-1.0,0.0,0.0));
#106=AXIS2_PLACEMENT_3D('',#103,#104,#105);
#107=CIRCLE('',#106,4.500000000000001);
#108=EDGE_CURVE('',#102,#102,#107,.T.);
#109=ORIENTED_EDGE('',*,*,#108,.F.);
#110=EDGE_LOOP('',(#109));
#111=FACE_OUTER_BOUND('',#110,.T.);
#112=ORIENTED_EDGE('',*,*,#80,.F.);
#113=EDGE_LOOP('',(#112));
#114=FACE_BOUND('',#113,.T.);
#115=ADVANCED_FACE('',(#111,#114),#100,.F.);
#116=CARTESIAN_POINT('',(-14.999999999999993,15.000000000000002,6.000000000000001));
#117=DIRECTION('',(0.0,0.0,1.0));
#118=DIRECTION('',(1.0,0.0,0.0));
#119=AXIS2_PLACEMENT_3D('',#116,#117,#118);
#120=PLANE('',#119);
#121=CARTESIAN_POINT('',(-6.249999999999991,15.0,5.999999999999996));
#122=VERTEX_POINT('',#121);
#123=CARTESIAN_POINT('',(-14.999999999999991,15.0,5.999999999999996));
#124=DIRECTION('',(0.0,0.0,-1.0));
#125=DIRECTION('',(-1.0,0.0,0.0));
#126=AXIS2_PLACEMENT_3D('',#123,#124,#125);
#127=CIRCLE('',#126,8.75);
#128=EDGE_CURVE('',#122,#122,#127,.T.);
#129=ORIENTED_EDGE('',*,*,#128,.F.);
#130=EDGE_LOOP('',(#129));
#131=FACE_OUTER_BOUND('',#130,.T.);
#132=ORIENTED_EDGE('',*,*,#91,.F.);
#133=EDGE_LOOP('',(#132));
#134=FACE_BOUND('',#133,.T.);
#135=ADVANCED_FACE('',(#131,#134),#120,.T.);
#136=CARTESIAN_POINT('',(-14.999999999999993,4.000000000000001,15.0));
#137=DIRECTION('',(0.0,1.0,0.0));
#138=DIRECTION('',(-1.0,0.0,0.0));
#139=AXIS2_PLACEMENT_3D('',#136,#137,#138);
#140=CONICAL_SURFACE('',#139,6.5,44.999999999999986);
#141=CARTESIAN_POINT('',(-10.499999999999993,2.000000000000001,15.0));
#142=VERTEX_POINT('',#141);
#143=CARTESIAN_POINT('',(-14.999999999999993,2.000000000000001,15.0));
#144=DIRECTION('',(0.0,-1.0,0.0));
#145=DIRECTION('',(-1.0,0.0,0.0));
#146=AXIS2_PLACEMENT_3D('',#143,#144,#145);
#147=CIRCLE('',#146,4.500000000000001);
#148=EDGE_CURVE('',#142,#142,#147,.T.);
#149=ORIENTED_EDGE('',*,*,#148,.T.);
#150=EDGE_LOOP('',(#149));
#151=FACE_OUTER_BOUND('',#150,.T.);
#152=CARTESIAN_POINT('',(-6.499999999999994,6.000000000000001,15.0));
#153=VERTEX_POINT('',#152);
#154=CARTESIAN_POINT('',(-14.999999999999993,6.000000000000001,15.0));
#155=DIRECTION('',(0.0,1.0,0.0));
#156=DIRECTION('',(-1.0,0.0,0.0));
#157=AXIS2_PLACEMENT_3D('',#154,#155,#156);
#158=CIRCLE('',#157,8.5);
#159=EDGE_CURVE('',#153,#153,#158,.T.);
#160=ORIENTED_EDGE('',*,*,#159,.T.);
#161=EDGE_LOOP('',(#160));
#162=FACE_BOUND('',#161,.T.);
#163=ADVANCED_FACE('',(#151,#162),#140,.F.);
#164=CARTESIAN_POINT('',(-14.999999999999993,6.000000000000001,15.0));
#165=DIRECTION('',(0.0,-1.0,0.0));
#166=DIRECTION('',(-1.0,0.0,0.0));
#167=AXIS2_PLACEMENT_3D('',#164,#165,#166);
#168=CYLINDRICAL_SURFACE('',#167,4.500000000000001);
#169=CARTESIAN_POINT('',(-10.499999999999993,0.0,15.0));
#170=VERTEX_POINT('',#169);
#171=CARTESIAN_POINT('',(-14.999999999999993,0.0,15.0));
#172=DIRECTION('',(0.0,1.0,0.0));
#173=DIRECTION('',(-1.0,0.0,0.0));
#174=AXIS2_PLACEMENT_3D('',#171,#172,#173);
#175=CIRCLE('',#174,4.500000000000001);
#176=EDGE_CURVE('',#170,#170,#175,.T.);
#177=ORIENTED_EDGE('',*,*,#176,.F.);
#178=EDGE_LOOP('',(#177));
#179=FACE_OUTER_BOUND('',#178,.T.);
#180=ORIENTED_EDGE('',*,*,#148,.F.);
#181=EDGE_LOOP('',(#180));
#182=FACE_BOUND('',#181,.T.);
#183=ADVANCED_FACE('',(#179,#182),#168,.F.);
#184=CARTESIAN_POINT('',(-14.999999999999993,6.000000000000001,15.000000000000002));
#185=DIRECTION('',(0.0,1.0,0.0));
#186=DIRECTION('',(0.0,0.0,1.0));
#187=AXIS2_PLACEMENT_3D('',#184,#185,#186);
#188=PLANE('',#187);
#189=CARTESIAN_POINT('',(-6.249999999999993,5.999999999999996,15.0));
#190=VERTEX_POINT('',#189);
#191=CARTESIAN_POINT('',(-14.999999999999993,5.999999999999996,15.0));
#192=DIRECTION('',(0.0,-1.0,0.0));
#193=DIRECTION('',(-1.0,0.0,0.0));
#194=AXIS2_PLACEMENT_3D('',#191,#192,#193);
#195=CIRCLE('',#194,8.75);
#196=EDGE_CURVE('',#190,#190,#195,.T.);
#197=ORIENTED_EDGE('',*,*,#196,.F.);
#198=EDGE_LOOP('',(#197));
#199=FACE_OUTER_BOUND('',#198,.T.);
#200=ORIENTED_EDGE('',*,*,#159,.F.);
#201=EDGE_LOOP('',(#200));
#202=FACE_BOUND('',#201,.T.);
#203=ADVANCED_FACE('',(#199,#202),#188,.T.);
#204=CARTESIAN_POINT('',(-29.0,29.0,7.500000000000004));
#205=DIRECTION('',(4.440892E-016,0.0,1.0));
#206=DIRECTION('',(-0.707106781186548,0.707106781186548,0.0));
#207=AXIS2_PLACEMENT_3D('',#204,#205,#206);
#208=CYLINDRICAL_SURFACE('',#207,1.0);
#209=CARTESIAN_POINT('',(-29.000000000000004,30.0,4.766035E-031));
#210=VERTEX_POINT('',#209);
#211=CARTESIAN_POINT('',(-30.000000000000004,29.0,4.930381E-031));
#212=VERTEX_POINT('',#211);
#213=CARTESIAN_POINT('',(-29.000000000000004,29.0,1.332268E-014));
#214=DIRECTION('',(0.0,0.0,1.0));
#215=DIRECTION('',(-0.707106781186548,0.707106781186548,0.0));
#216=AXIS2_PLACEMENT_3D('',#213,#214,#215);
#217=CIRCLE('',#216,1.0);
#218=EDGE_CURVE('',#210,#212,#217,.T.);
#219=ORIENTED_EDGE('',*,*,#218,.T.);
#220=CARTESIAN_POINT('',(-29.999999999999993,29.0,29.0));
#221=VERTEX_POINT('',#220);
#222=CARTESIAN_POINT('',(-30.000000000000004,29.0,0.0));
#223=DIRECTION('',(0.0,0.0,1.0));
#224=VECTOR('',#223,28.999999999999996);
#225=LINE('',#222,#224);
#226=EDGE_CURVE('',#212,#221,#225,.T.);
#227=ORIENTED_EDGE('',*,*,#226,.T.);
#228=CARTESIAN_POINT('',(-28.999999999999989,30.0,29.0));
#229=VERTEX_POINT('',#228);
#230=CARTESIAN_POINT('',(-28.999999999999989,29.0,29.0));
#231=DIRECTION('',(0.0,0.0,-1.0));
#232=DIRECTION('',(-1.0,0.0,0.0));
#233=AXIS2_PLACEMENT_3D('',#230,#231,#232);
#234=CIRCLE('',#233,1.000000000000001);
#235=EDGE_CURVE('',#221,#229,#234,.T.);
#236=ORIENTED_EDGE('',*,*,#235,.T.);
#237=CARTESIAN_POINT('',(-28.999999999999989,30.0,28.999999999999996));
#238=DIRECTION('',(0.0,0.0,-1.0));
#239=VECTOR('',#238,28.999999999999996);
#240=LINE('',#237,#239);
#241=EDGE_CURVE('',#229,#210,#240,.T.);
#242=ORIENTED_EDGE('',*,*,#241,.T.);
#243=EDGE_LOOP('',(#219,#227,#236,#242));
#244=FACE_OUTER_BOUND('',#243,.T.);
#245=ADVANCED_FACE('',(#244),#208,.T.);
#246=CARTESIAN_POINT('',(-28.999999999999993,0.0,29.0));
#247=DIRECTION('',(0.0,1.0,0.0));
#248=DIRECTION('',(-0.707106781186544,0.0,0.707106781186551));
#249=AXIS2_PLACEMENT_3D('',#246,#247,#248);
#250=CYLINDRICAL_SURFACE('',#249,1.0);
#251=CARTESIAN_POINT('',(-29.999999999999993,0.0,29.0));
#252=VERTEX_POINT('',#251);
#253=CARTESIAN_POINT('',(-28.999999999999993,0.0,30.0));
#254=VERTEX_POINT('',#253);
#255=CARTESIAN_POINT('',(-28.999999999999993,0.0,29.0));
#256=DIRECTION('',(0.0,1.0,0.0));
#257=DIRECTION('',(-0.707106781186544,0.0,0.707106781186551));
#258=AXIS2_PLACEMENT_3D('',#255,#256,#257);
#259=CIRCLE('',#258,1.0);
#260=EDGE_CURVE('',#252,#254,#259,.T.);
#261=ORIENTED_EDGE('',*,*,#260,.T.);
#262=CARTESIAN_POINT('',(-28.999999999999993,29.0,30.0));
#263=VERTEX_POINT('',#262);
#264=CARTESIAN_POINT('',(-28.999999999999993,0.0,30.0));
#265=DIRECTION('',(0.0,1.0,0.0));
#266=VECTOR('',#265,29.0);
#267=LINE('',#264,#266);
#268=EDGE_CURVE('',#254,#263,#267,.T.);
#269=ORIENTED_EDGE('',*,*,#268,.T.);
#270=CARTESIAN_POINT('',(-28.999999999999993,29.0,29.0));
#271=DIRECTION('',(0.0,-1.0,0.0));
#272=DIRECTION('',(0.0,0.0,1.0));
#273=AXIS2_PLACEMENT_3D('',#270,#271,#272);
#274=CIRCLE('',#273,1.000000000000001);
#275=EDGE_CURVE('',#263,#221,#274,.T.);
#276=ORIENTED_EDGE('',*,*,#275,.T.);
#277=CARTESIAN_POINT('',(-29.999999999999993,29.0,29.0));
#278=DIRECTION('',(0.0,-1.0,0.0));
#279=VECTOR('',#278,29.0);
#280=LINE('',#277,#279);
#281=EDGE_CURVE('',#221,#252,#280,.T.);
#282=ORIENTED_EDGE('',*,*,#281,.T.);
#283=EDGE_LOOP('',(#261,#269,#276,#282));
#284=FACE_OUTER_BOUND('',#283,.T.);
#285=ADVANCED_FACE('',(#284),#250,.T.);
#286=CARTESIAN_POINT('',(-28.999999999999989,29.0,29.0));
#287=DIRECTION('',(-0.408248290463863,0.408248290463862,-0.816496580927727));
#288=DIRECTION('',(-0.577350269189628,0.577350269189625,0.577350269189625));
#289=AXIS2_PLACEMENT_3D('',#286,#287,#288);
#290=SPHERICAL_SURFACE('',#289,1.0);
#291=ORIENTED_EDGE('',*,*,#275,.F.);
#292=CARTESIAN_POINT('',(-28.999999999999989,29.0,29.0));
#293=DIRECTION('',(-1.0,0.0,0.0));
#294=DIRECTION('',(0.0,0.707106781186548,0.707106781186548));
#295=AXIS2_PLACEMENT_3D('',#292,#293,#294);
#296=CIRCLE('',#295,0.999999999999998);
#297=EDGE_CURVE('',#263,#229,#296,.T.);
#298=ORIENTED_EDGE('',*,*,#297,.T.);
#299=ORIENTED_EDGE('',*,*,#235,.F.);
#300=EDGE_LOOP('',(#291,#298,#299));
#301=FACE_OUTER_BOUND('',#300,.T.);
#302=ADVANCED_FACE('',(#301),#290,.T.);
#303=CARTESIAN_POINT('',(0.0,0.0,0.0));
#304=DIRECTION('',(0.0,0.0,-1.0));
#305=DIRECTION('',(-1.0,0.0,0.0));
#306=AXIS2_PLACEMENT_3D('',#303,#304,#305);
#307=PLANE('',#306);
#308=ORIENTED_EDGE('',*,*,#218,.F.);
#309=CARTESIAN_POINT('',(-1.0,30.0,1.643460E-032));
#310=VERTEX_POINT('',#309);
#311=CARTESIAN_POINT('',(-1.0,30.0,1.643460E-032));
#312=DIRECTION('',(-1.0,0.0,0.0));
#313=VECTOR('',#312,28.000000000000004);
#314=LINE('',#311,#313);
#315=EDGE_CURVE('',#310,#210,#314,.T.);
#316=ORIENTED_EDGE('',*,*,#315,.F.);
#317=CARTESIAN_POINT('',(0.0,29.0,0.0));
#318=VERTEX_POINT('',#317);
#319=CARTESIAN_POINT('',(-1.0,29.0,0.0));
#320=DIRECTION('',(0.0,0.0,1.0));
#321=DIRECTION('',(0.707106781186546,0.707106781186549,0.0));
#322=AXIS2_PLACEMENT_3D('',#319,#320,#321);
#323=CIRCLE('',#322,1.0);
#324=EDGE_CURVE('',#318,#310,#323,.T.);
#325=ORIENTED_EDGE('',*,*,#324,.F.);
#326=CARTESIAN_POINT('',(0.0,0.0,0.0));
#327=VERTEX_POINT('',#326);
#328=CARTESIAN_POINT('',(0.0,0.0,0.0));
#329=DIRECTION('',(0.0,1.0,0.0));
#330=VECTOR('',#329,29.0);
#331=LINE('',#328,#330);
#332=EDGE_CURVE('',#327,#318,#331,.T.);
#333=ORIENTED_EDGE('',*,*,#332,.F.);
#334=CARTESIAN_POINT('',(-30.000000000000004,0.0,4.930381E-031));
#335=VERTEX_POINT('',#334);
#336=CARTESIAN_POINT('',(0.0,0.0,0.0));
#337=DIRECTION('',(-1.0,0.0,0.0));
#338=VECTOR('',#337,30.000000000000004);
#339=LINE('',#336,#338);
#340=EDGE_CURVE('',#327,#335,#339,.T.);
#341=ORIENTED_EDGE('',*,*,#340,.T.);
#342=CARTESIAN_POINT('',(-30.000000000000004,0.0,4.930381E-031));
#343=DIRECTION('',(0.0,1.0,0.0));
#344=VECTOR('',#343,29.0);
#345=LINE('',#342,#344);
#346=EDGE_CURVE('',#335,#212,#345,.T.);
#347=ORIENTED_EDGE('',*,*,#346,.T.);
#348=EDGE_LOOP('',(#308,#316,#325,#333,#341,#347));
#349=FACE_OUTER_BOUND('',#348,.T.);
#350=ORIENTED_EDGE('',*,*,#108,.T.);
#351=EDGE_LOOP('',(#350));
#352=FACE_BOUND('',#351,.T.);
#353=ADVANCED_FACE('',(#349,#352),#307,.T.);
#354=CARTESIAN_POINT('',(-14.999999999999998,30.0,15.0));
#355=DIRECTION('',(0.0,-1.0,0.0));
#356=DIRECTION('',(0.0,0.0,-1.0));
#357=AXIS2_PLACEMENT_3D('',#354,#355,#356);
#358=PLANE('',#357);
#359=ORIENTED_EDGE('',*,*,#241,.F.);
#360=CARTESIAN_POINT('',(-0.999999999999988,30.0,29.0));
#361=VERTEX_POINT('',#360);
#362=CARTESIAN_POINT('',(-0.999999999999989,30.0,29.0));
#363=DIRECTION('',(-1.0,0.0,0.0));
#364=VECTOR('',#363,28.000000000000004);
#365=LINE('',#362,#364);
#366=EDGE_CURVE('',#361,#229,#365,.T.);
#367=ORIENTED_EDGE('',*,*,#366,.F.);
#368=CARTESIAN_POINT('',(-1.0,30.0,0.0));
#369=DIRECTION('',(0.0,0.0,1.0));
#370=VECTOR('',#369,29.0);
#371=LINE('',#368,#370);
#372=EDGE_CURVE('',#310,#361,#371,.T.);
#373=ORIENTED_EDGE('',*,*,#372,.F.);
#374=ORIENTED_EDGE('',*,*,#315,.T.);
#375=EDGE_LOOP('',(#359,#367,#373,#374));
#376=FACE_OUTER_BOUND('',#375,.T.);
#377=CARTESIAN_POINT('',(-4.249999999999991,30.0,14.999999999999998));
#378=VERTEX_POINT('',#377);
#379=CARTESIAN_POINT('',(-14.999999999999993,30.0,15.0));
#380=DIRECTION('',(0.0,1.0,0.0));
#381=DIRECTION('',(-1.0,0.0,0.0));
#382=AXIS2_PLACEMENT_3D('',#379,#380,#381);
#383=CIRCLE('',#382,10.750000000000002);
#384=EDGE_CURVE('',#378,#378,#383,.T.);
#385=ORIENTED_EDGE('',*,*,#384,.F.);
#386=EDGE_LOOP('',(#385));
#387=FACE_BOUND('',#386,.T.);
#388=ADVANCED_FACE('',(#376,#387),#358,.F.);
#389=CARTESIAN_POINT('',(-22.499999999999996,29.0,29.0));
#390=DIRECTION('',(1.0,0.0,0.0));
#391=DIRECTION('',(0.0,0.707106781186548,0.707106781186548));
#392=AXIS2_PLACEMENT_3D('',#389,#390,#391);
#393=CYLINDRICAL_SURFACE('',#392,1.0);
#394=ORIENTED_EDGE('',*,*,#297,.F.);
#395=CARTESIAN_POINT('',(-0.99999999999999,29.0,30.0));
#396=VERTEX_POINT('',#395);
#397=CARTESIAN_POINT('',(-28.999999999999996,29.0,30.0));
#398=DIRECTION('',(1.0,0.0,0.0));
#399=VECTOR('',#398,28.000000000000004);
#400=LINE('',#397,#399);
#401=EDGE_CURVE('',#263,#396,#400,.T.);
#402=ORIENTED_EDGE('',*,*,#401,.T.);
#403=CARTESIAN_POINT('',(-0.999999999999992,29.0,29.0));
#404=DIRECTION('',(1.0,0.0,0.0));
#405=DIRECTION('',(0.0,0.0,1.0));
#406=AXIS2_PLACEMENT_3D('',#403,#404,#405);
#407=CIRCLE('',#406,1.000000000000001);
#408=EDGE_CURVE('',#396,#361,#407,.F.);
#409=ORIENTED_EDGE('',*,*,#408,.T.);
#410=ORIENTED_EDGE('',*,*,#366,.T.);
#411=EDGE_LOOP('',(#394,#402,#409,#410));
#412=FACE_OUTER_BOUND('',#411,.T.);
#413=ADVANCED_FACE('',(#412),#393,.T.);
#414=CARTESIAN_POINT('',(-29.999999999999993,0.0,30.0));
#415=DIRECTION('',(0.0,0.0,1.0));
#416=DIRECTION('',(1.0,0.0,0.0));
#417=AXIS2_PLACEMENT_3D('',#414,#415,#416);
#418=PLANE('',#417);
#419=ORIENTED_EDGE('',*,*,#268,.F.);
#420=CARTESIAN_POINT('',(-0.999999999999988,0.0,30.0));
#421=VERTEX_POINT('',#420);
#422=CARTESIAN_POINT('',(-28.999999999999996,0.0,30.0));
#423=DIRECTION('',(1.0,0.0,0.0));
#424=VECTOR('',#423,28.000000000000007);
#425=LINE('',#422,#424);
#426=EDGE_CURVE('',#254,#421,#425,.T.);
#427=ORIENTED_EDGE('',*,*,#426,.T.);
#428=CARTESIAN_POINT('',(-0.99999999999999,29.0,30.0));
#429=DIRECTION('',(0.0,-1.0,0.0));
#430=VECTOR('',#429,29.0);
#431=LINE('',#428,#430);
#432=EDGE_CURVE('',#396,#421,#431,.T.);
#433=ORIENTED_EDGE('',*,*,#432,.F.);
#434=ORIENTED_EDGE('',*,*,#401,.F.);
#435=EDGE_LOOP('',(#419,#427,#433,#434));
#436=FACE_OUTER_BOUND('',#435,.T.);
#437=CARTESIAN_POINT('',(-4.249999999999989,15.000000000000002,30.0));
#438=VERTEX_POINT('',#437);
#439=CARTESIAN_POINT('',(-14.999999999999991,15.0,30.0));
#440=DIRECTION('',(0.0,0.0,1.0));
#441=DIRECTION('',(-1.0,0.0,0.0));
#442=AXIS2_PLACEMENT_3D('',#439,#440,#441);
#443=CIRCLE('',#442,10.750000000000002);
#444=EDGE_CURVE('',#438,#438,#443,.T.);
#445=ORIENTED_EDGE('',*,*,#444,.F.);
#446=EDGE_LOOP('',(#445));
#447=FACE_BOUND('',#446,.T.);
#448=ADVANCED_FACE('',(#436,#447),#418,.T.);
#449=CARTESIAN_POINT('',(-14.999999999999991,15.0,29.0));
#450=DIRECTION('',(0.0,0.0,1.0));
#451=DIRECTION('',(-1.0,0.0,0.0));
#452=AXIS2_PLACEMENT_3D('',#449,#450,#451);
#453=CONICAL_SURFACE('',#452,9.75,44.999999999999993);
#454=CARTESIAN_POINT('',(-6.249999999999991,15.0,28.0));
#455=VERTEX_POINT('',#454);
#456=CARTESIAN_POINT('',(-14.999999999999991,15.0,28.0));
#457=DIRECTION('',(0.0,0.0,-1.0));
#458=DIRECTION('',(-1.0,0.0,0.0));
#459=AXIS2_PLACEMENT_3D('',#456,#457,#458);
#460=CIRCLE('',#459,8.75);
#461=EDGE_CURVE('',#455,#455,#460,.T.);
#462=ORIENTED_EDGE('',*,*,#461,.T.);
#463=EDGE_LOOP('',(#462));
#464=FACE_OUTER_BOUND('',#463,.T.);
#465=ORIENTED_EDGE('',*,*,#444,.T.);
#466=EDGE_LOOP('',(#465));
#467=FACE_BOUND('',#466,.T.);
#468=ADVANCED_FACE('',(#464,#467),#453,.F.);
#469=CARTESIAN_POINT('',(-14.999999999999991,15.0,30.0));
#470=DIRECTION('',(0.0,0.0,-1.0));
#471=DIRECTION('',(-1.0,0.0,0.0));
#472=AXIS2_PLACEMENT_3D('',#469,#470,#471);
#473=CYLINDRICAL_SURFACE('',#472,8.75);
#474=CARTESIAN_POINT('',(-23.749999999999993,15.0,15.0));
#475=VERTEX_POINT('',#474);
#476=CARTESIAN_POINT('',(-6.249999999999993,15.0,15.0));
#477=VERTEX_POINT('',#476);
#478=CARTESIAN_POINT('',(-14.999999999999993,15.0,15.0));
#479=DIRECTION('',(0.0,0.707106781186548,-0.707106781186547));
#480=DIRECTION('',(0.0,-0.707106781186547,-0.707106781186548));
#481=AXIS2_PLACEMENT_3D('',#478,#479,#480);
#482=ELLIPSE('',#481,12.37436867076458,8.75);
#483=EDGE_CURVE('',#475,#477,#482,.T.);
#484=ORIENTED_EDGE('',*,*,#483,.T.);
#485=CARTESIAN_POINT('',(-14.999999999999993,15.0,15.0));
#486=DIRECTION('',(0.0,-0.707106781186548,-0.707106781186547));
#487=DIRECTION('',(0.0,0.707106781186547,-0.707106781186548));
#488=AXIS2_PLACEMENT_3D('',#485,#486,#487);
#489=ELLIPSE('',#488,12.37436867076458,8.75);
#490=EDGE_CURVE('',#477,#475,#489,.T.);
#491=ORIENTED_EDGE('',*,*,#490,.T.);
#492=EDGE_LOOP('',(#484,#491));
#493=FACE_OUTER_BOUND('',#492,.T.);
#494=ORIENTED_EDGE('',*,*,#461,.F.);
#495=EDGE_LOOP('',(#494));
#496=FACE_BOUND('',#495,.T.);
#497=ADVANCED_FACE('',(#493,#496),#473,.F.);
#498=CARTESIAN_POINT('',(-14.999999999999993,29.0,15.0));
#499=DIRECTION('',(0.0,1.0,0.0));
#500=DIRECTION('',(-1.0,0.0,0.0));
#501=AXIS2_PLACEMENT_3D('',#498,#499,#500);
#502=CONICAL_SURFACE('',#501,9.75,44.999999999999993);
#503=CARTESIAN_POINT('',(-6.249999999999993,28.0,15.0));
#504=VERTEX_POINT('',#503);
#505=CARTESIAN_POINT('',(-14.999999999999993,28.0,15.0));
#506=DIRECTION('',(0.0,-1.0,0.0));
#507=DIRECTION('',(-1.0,0.0,0.0));
#508=AXIS2_PLACEMENT_3D('',#505,#506,#507);
#509=CIRCLE('',#508,8.75);
#510=EDGE_CURVE('',#504,#504,#509,.T.);
#511=ORIENTED_EDGE('',*,*,#510,.T.);
#512=EDGE_LOOP('',(#511));
#513=FACE_OUTER_BOUND('',#512,.T.);
#514=ORIENTED_EDGE('',*,*,#384,.T.);
#515=EDGE_LOOP('',(#514));
#516=FACE_BOUND('',#515,.T.);
#517=ADVANCED_FACE('',(#513,#516),#502,.F.);
#518=CARTESIAN_POINT('',(-14.999999999999993,30.0,15.0));
#519=DIRECTION('',(0.0,-1.0,0.0));
#520=DIRECTION('',(-1.0,0.0,0.0));
#521=AXIS2_PLACEMENT_3D('',#518,#519,#520);
#522=CYLINDRICAL_SURFACE('',#521,8.75);
#523=ORIENTED_EDGE('',*,*,#483,.F.);
#524=CARTESIAN_POINT('',(-14.999999999999993,15.0,15.0));
#525=DIRECTION('',(0.0,0.707106781186548,0.707106781186547));
#526=DIRECTION('',(0.0,0.707106781186547,-0.707106781186548));
#527=AXIS2_PLACEMENT_3D('',#524,#525,#526);
#528=ELLIPSE('',#527,12.37436867076458,8.75);
#529=EDGE_CURVE('',#477,#475,#528,.T.);
#530=ORIENTED_EDGE('',*,*,#529,.F.);
#531=EDGE_LOOP('',(#523,#530));
#532=FACE_OUTER_BOUND('',#531,.T.);
#533=ORIENTED_EDGE('',*,*,#510,.F.);
#534=EDGE_LOOP('',(#533));
#535=FACE_BOUND('',#534,.T.);
#536=ADVANCED_FACE('',(#532,#535),#522,.F.);
#537=CARTESIAN_POINT('',(-0.99999999999999,29.0,29.000000000000004));
#538=DIRECTION('',(0.408248290463861,0.40824829046386,-0.816496580927729));
#539=DIRECTION('',(0.577350269189628,0.577350269189627,0.577350269189622));
#540=AXIS2_PLACEMENT_3D('',#537,#538,#539);
#541=SPHERICAL_SURFACE('',#540,1.0);
#542=ORIENTED_EDGE('',*,*,#408,.F.);
#543=CARTESIAN_POINT('',(1.040502E-014,29.0,29.000000000000004));
#544=VERTEX_POINT('',#543);
#545=CARTESIAN_POINT('',(-0.99999999999999,29.0,29.000000000000004));
#546=DIRECTION('',(0.0,1.0,0.0));
#547=DIRECTION('',(1.0,0.0,0.0));
#548=AXIS2_PLACEMENT_3D('',#545,#546,#547);
#549=CIRCLE('',#548,1.0);
#550=EDGE_CURVE('',#544,#396,#549,.F.);
#551=ORIENTED_EDGE('',*,*,#550,.F.);
#552=CARTESIAN_POINT('',(-0.99999999999999,29.0,29.0));
#553=DIRECTION('',(0.0,0.0,1.0));
#554=DIRECTION('',(0.0,1.0,0.0));
#555=AXIS2_PLACEMENT_3D('',#552,#553,#554);
#556=CIRCLE('',#555,1.000000000000001);
#557=EDGE_CURVE('',#361,#544,#556,.F.);
#558=ORIENTED_EDGE('',*,*,#557,.F.);
#559=EDGE_LOOP('',(#542,#551,#558));
#560=FACE_OUTER_BOUND('',#559,.T.);
#561=ADVANCED_FACE('',(#560),#541,.T.);
#562=CARTESIAN_POINT('',(-0.99999999999999,0.0,29.000000000000004));
#563=DIRECTION('',(0.0,1.0,0.0));
#564=DIRECTION('',(0.707106781186549,0.0,0.707106781186546));
#565=AXIS2_PLACEMENT_3D('',#562,#563,#564);
#566=CYLINDRICAL_SURFACE('',#565,1.0);
#567=CARTESIAN_POINT('',(1.051094E-014,0.0,29.000000000000004));
#568=VERTEX_POINT('',#567);
#569=CARTESIAN_POINT('',(-0.99999999999999,0.0,29.000000000000004));
#570=DIRECTION('',(0.0,1.0,0.0));
#571=DIRECTION('',(0.707106781186549,0.0,0.707106781186546));
#572=AXIS2_PLACEMENT_3D('',#569,#570,#571);
#573=CIRCLE('',#572,1.0);
#574=EDGE_CURVE('',#421,#568,#573,.T.);
#575=ORIENTED_EDGE('',*,*,#574,.T.);
#576=CARTESIAN_POINT('',(1.040834E-014,0.0,29.000000000000004));
#577=DIRECTION('',(0.0,1.0,0.0));
#578=VECTOR('',#577,29.0);
#579=LINE('',#576,#578);
#580=EDGE_CURVE('',#568,#544,#579,.T.);
#581=ORIENTED_EDGE('',*,*,#580,.T.);
#582=ORIENTED_EDGE('',*,*,#550,.T.);
#583=ORIENTED_EDGE('',*,*,#432,.T.);
#584=EDGE_LOOP('',(#575,#581,#582,#583));
#585=FACE_OUTER_BOUND('',#584,.T.);
#586=ADVANCED_FACE('',(#585),#566,.T.);
#587=CARTESIAN_POINT('',(-0.999999999999992,29.0,22.499999999999996));
#588=DIRECTION('',(-3.624461E-016,0.0,-1.0));
#589=DIRECTION('',(0.707106781186546,0.707106781186549,0.0));
#590=AXIS2_PLACEMENT_3D('',#587,#588,#589);
#591=CYLINDRICAL_SURFACE('',#590,1.0);
#592=ORIENTED_EDGE('',*,*,#324,.T.);
#593=ORIENTED_EDGE('',*,*,#372,.T.);
#594=ORIENTED_EDGE('',*,*,#557,.T.);
#595=CARTESIAN_POINT('',(1.040502E-014,29.0,29.000000000000004));
#596=DIRECTION('',(0.0,0.0,-1.0));
#597=VECTOR('',#596,29.000000000000004);
#598=LINE('',#595,#597);
#599=EDGE_CURVE('',#544,#318,#598,.T.);
#600=ORIENTED_EDGE('',*,*,#599,.T.);
#601=EDGE_LOOP('',(#592,#593,#594,#600));
#602=FACE_OUTER_BOUND('',#601,.T.);
#603=ADVANCED_FACE('',(#602),#591,.T.);
#604=CARTESIAN_POINT('',(1.087338E-014,0.0,30.0));
#605=DIRECTION('',(1.0,0.0,0.0));
#606=DIRECTION('',(0.0,0.0,-1.0));
#607=AXIS2_PLACEMENT_3D('',#604,#605,#606);
#608=PLANE('',#607);
#609=ORIENTED_EDGE('',*,*,#599,.F.);
#610=ORIENTED_EDGE('',*,*,#580,.F.);
#611=CARTESIAN_POINT('',(1.051094E-014,0.0,29.000000000000004));
#612=DIRECTION('',(0.0,0.0,-1.0));
#613=VECTOR('',#612,29.000000000000004);
#614=LINE('',#611,#613);
#615=EDGE_CURVE('',#568,#327,#614,.T.);
#616=ORIENTED_EDGE('',*,*,#615,.T.);
#617=ORIENTED_EDGE('',*,*,#332,.T.);
#618=EDGE_LOOP('',(#609,#610,#616,#617));
#619=FACE_OUTER_BOUND('',#618,.T.);
#620=ADVANCED_FACE('',(#619),#608,.T.);
#621=CARTESIAN_POINT('',(-14.999999999999998,0.0,15.0));
#622=DIRECTION('',(0.0,-1.0,0.0));
#623=DIRECTION('',(0.0,0.0,-1.0));
#624=AXIS2_PLACEMENT_3D('',#621,#622,#623);
#625=PLANE('',#624);
#626=ORIENTED_EDGE('',*,*,#260,.F.);
#627=CARTESIAN_POINT('',(-30.000000000000004,0.0,4.930381E-031));
#628=DIRECTION('',(0.0,0.0,1.0));
#629=VECTOR('',#628,29.0);
#630=LINE('',#627,#629);
#631=EDGE_CURVE('',#335,#252,#630,.T.);
#632=ORIENTED_EDGE('',*,*,#631,.F.);
#633=ORIENTED_EDGE('',*,*,#340,.F.);
#634=ORIENTED_EDGE('',*,*,#615,.F.);
#635=ORIENTED_EDGE('',*,*,#574,.F.);
#636=ORIENTED_EDGE('',*,*,#426,.F.);
#637=EDGE_LOOP('',(#626,#632,#633,#634,#635,#636));
#638=FACE_OUTER_BOUND('',#637,.T.);
#639=ORIENTED_EDGE('',*,*,#176,.T.);
#640=EDGE_LOOP('',(#639));
#641=FACE_BOUND('',#640,.T.);
#642=ADVANCED_FACE('',(#638,#641),#625,.T.);
#643=CARTESIAN_POINT('',(-14.999999999999993,30.0,15.0));
#644=DIRECTION('',(0.0,-1.0,0.0));
#645=DIRECTION('',(-1.0,0.0,0.0));
#646=AXIS2_PLACEMENT_3D('',#643,#644,#645);
#647=CYLINDRICAL_SURFACE('',#646,8.75);
#648=ORIENTED_EDGE('',*,*,#196,.T.);
#649=EDGE_LOOP('',(#648));
#650=FACE_OUTER_BOUND('',#649,.T.);
#651=ORIENTED_EDGE('',*,*,#490,.F.);
#652=CARTESIAN_POINT('',(-14.999999999999993,15.0,15.0));
#653=DIRECTION('',(0.0,-0.707106781186548,0.707106781186547));
#654=DIRECTION('',(0.0,-0.707106781186547,-0.707106781186548));
#655=AXIS2_PLACEMENT_3D('',#652,#653,#654);
#656=ELLIPSE('',#655,12.37436867076458,8.75);
#657=EDGE_CURVE('',#475,#477,#656,.T.);
#658=ORIENTED_EDGE('',*,*,#657,.F.);
#659=EDGE_LOOP('',(#651,#658));
#660=FACE_BOUND('',#659,.T.);
#661=ADVANCED_FACE('',(#650,#660),#647,.F.);
#662=CARTESIAN_POINT('',(-14.999999999999991,15.0,30.0));
#663=DIRECTION('',(0.0,0.0,-1.0));
#664=DIRECTION('',(-1.0,0.0,0.0));
#665=AXIS2_PLACEMENT_3D('',#662,#663,#664);
#666=CYLINDRICAL_SURFACE('',#665,8.75);
#667=ORIENTED_EDGE('',*,*,#128,.T.);
#668=EDGE_LOOP('',(#667));
#669=FACE_OUTER_BOUND('',#668,.T.);
#670=ORIENTED_EDGE('',*,*,#529,.T.);
#671=ORIENTED_EDGE('',*,*,#657,.T.);
#672=EDGE_LOOP('',(#670,#671));
#673=FACE_BOUND('',#672,.T.);
#674=ADVANCED_FACE('',(#669,#673),#666,.F.);
#675=CARTESIAN_POINT('',(-30.000000000000004,0.0,4.930381E-031));
#676=DIRECTION('',(-1.0,0.0,0.0));
#677=DIRECTION('',(0.0,0.0,1.0));
#678=AXIS2_PLACEMENT_3D('',#675,#676,#677);
#679=PLANE('',#678);
#680=ORIENTED_EDGE('',*,*,#226,.F.);
#681=ORIENTED_EDGE('',*,*,#346,.F.);
#682=ORIENTED_EDGE('',*,*,#631,.T.);
#683=ORIENTED_EDGE('',*,*,#281,.F.);
#684=EDGE_LOOP('',(#680,#681,#682,#683));
#685=FACE_OUTER_BOUND('',#684,.T.);
#686=ADVANCED_FACE('',(#685),#679,.T.);
#687=CLOSED_SHELL('',(#95,#115,#135,#163,#183,#203,#245,#285,#302,#353,#388,#413,#448,#468,#497,#517,#536,#561,#586,#603,#620,#642,#661,#674,#686));
#688=MANIFOLD_SOLID_BREP('Bry\X2\0142\X0\a1',#687);
#689=COLOUR_RGB('Aluminium \X2\FFFD\X0\ p\X2\FFFD\X0\aski',0.898039221763611,0.899999976158142,0.899999976158142);
#690=FILL_AREA_STYLE_COLOUR('Aluminium \X2\FFFD\X0\ p\X2\FFFD\X0\aski',#689);
#691=FILL_AREA_STYLE('Aluminium \X2\FFFD\X0\ p\X2\FFFD\X0\aski',(#690));
#692=SURFACE_STYLE_FILL_AREA(#691);
#693=SURFACE_SIDE_STYLE('Aluminium \X2\FFFD\X0\ p\X2\FFFD\X0\aski',(#692));
#694=SURFACE_STYLE_USAGE(.BOTH.,#693);
#695=PRESENTATION_STYLE_ASSIGNMENT((#694));
#696=STYLED_ITEM('',(#695),#688);
#697=MECHANICAL_DESIGN_GEOMETRIC_PRESENTATION_REPRESENTATION('',(#696),#36);
#698=ADVANCED_BREP_SHAPE_REPRESENTATION('ABSR',(#688),#36);
#699=SHAPE_REPRESENTATION_RELATIONSHIP('SRR','None',#698,#41);
ENDSEC;
END-ISO-10303-21;
