ISO-10303-21;
HEADER;
/****************************************************************
 * Generated by software with PDElib inside                    *
 * PDElib Version v51a, created Wed 11/30/2011                  *
 * ITI Transcendata (http://www.transcendata.com/)              *
 ****************************************************************/
FILE_DESCRIPTION((''),'2;1');
FILE_NAME('\\\\WIN\\Rysunki\\Inventor\\@System profili aluminiowych\\System modeli aluminiowych STEP ARMA\\AR3527.stp','2016-10-03T11:37:49',('Konstruktor II'),(''),'Autodesk Inventor 2013','Autodesk Inventor 2013','');
FILE_SCHEMA(('AUTOMOTIVE_DESIGN { 1 0 10303 214 1 1 1 1 }'));
ENDSEC;
DATA;
#5=APPLICATION_CONTEXT('automotive design');
#6=APPLICATION_PROTOCOL_DEFINITION('International Standard','automotive_design',2001,#5);
#7=PRODUCT_CONTEXT('',#5,'mechanical');
#8=PRODUCT('AR3527','AR3527',$,(#7));
#9=PRODUCT_RELATED_PRODUCT_CATEGORY('part',$,(#8));
#10=PRODUCT_DEFINITION_FORMATION('',$,#8);
#11=PRODUCT_DEFINITION_CONTEXT('part definition',#5,'design');
#12=PRODUCT_DEFINITION('',$,#10,#11);
#18=(NAMED_UNIT(*)PLANE_ANGLE_UNIT()SI_UNIT($,.RADIAN.));
#19=DIMENSIONAL_EXPONENTS(0.0,0.0,0.0,0.0,0.0,0.0,0.0);
#20=PLANE_ANGLE_MEASURE_WITH_UNIT(PLANE_ANGLE_MEASURE(0.0174532925),#18);
#24=(CONVERSION_BASED_UNIT('DEGREE',#20)NAMED_UNIT(#19)PLANE_ANGLE_UNIT());
#28=(NAMED_UNIT(*)SI_UNIT($,.STERADIAN.)SOLID_ANGLE_UNIT());
#32=(LENGTH_UNIT()NAMED_UNIT(*)SI_UNIT(.MILLI.,.METRE.));
#34=UNCERTAINTY_MEASURE_WITH_UNIT(LENGTH_MEASURE(0.01),#32,'DISTANCE_ACCURACY_VALUE','');
#36=(GEOMETRIC_REPRESENTATION_CONTEXT(3)GLOBAL_UNCERTAINTY_ASSIGNED_CONTEXT((#34))GLOBAL_UNIT_ASSIGNED_CONTEXT((#24,#28,#32))REPRESENTATION_CONTEXT('None','None'));
#37=AXIS2_PLACEMENT_3D('',#38,#39,#40);
#38=CARTESIAN_POINT('',(0.0,0.0,0.0));
#39=DIRECTION('',(0.0,0.0,1.0));
#40=DIRECTION('',(1.0,0.0,0.0));
#41=SHAPE_REPRESENTATION('',(#37),#36);
#42=PRODUCT_DEFINITION_SHAPE('','',#12);
#43=SHAPE_DEFINITION_REPRESENTATION(#42,#41);
#49=(NAMED_UNIT(*)PLANE_ANGLE_UNIT()SI_UNIT($,.RADIAN.));
#50=DIMENSIONAL_EXPONENTS(0.0,0.0,0.0,0.0,0.0,0.0,0.0);
#51=PLANE_ANGLE_MEASURE_WITH_UNIT(PLANE_ANGLE_MEASURE(0.0174532925),#49);
#55=(CONVERSION_BASED_UNIT('DEGREE',#51)NAMED_UNIT(#50)PLANE_ANGLE_UNIT());
#59=(NAMED_UNIT(*)SI_UNIT($,.STERADIAN.)SOLID_ANGLE_UNIT());
#63=(LENGTH_UNIT()NAMED_UNIT(*)SI_UNIT(.MILLI.,.METRE.));
#65=UNCERTAINTY_MEASURE_WITH_UNIT(LENGTH_MEASURE(0.000001),#63,'DISTANCE_ACCURACY_VALUE','');
#67=(GEOMETRIC_REPRESENTATION_CONTEXT(3)GLOBAL_UNCERTAINTY_ASSIGNED_CONTEXT((#65))GLOBAL_UNIT_ASSIGNED_CONTEXT((#55,#59,#63))REPRESENTATION_CONTEXT('','3D'));
#68=CARTESIAN_POINT('',(1.375190E-031,-1.693526E-015,0.0));
#69=DIRECTION('',(-1.110223E-016,1.0,0.0));
#70=DIRECTION('',(-1.0,0.0,0.0));
#71=AXIS2_PLACEMENT_3D('',#68,#69,#70);
#72=CYLINDRICAL_SURFACE('',#71,4.500000000000001);
#73=CARTESIAN_POINT('',(4.5,4.999999999999999,5.510911E-016));
#74=VERTEX_POINT('',#73);
#75=CARTESIAN_POINT('',(-5.551115E-016,4.999999999999998,0.0));
#76=DIRECTION('',(0.0,1.0,0.0));
#77=DIRECTION('',(-1.0,0.0,0.0));
#78=AXIS2_PLACEMENT_3D('',#75,#76,#77);
#79=CIRCLE('',#78,4.500000000000001);
#80=EDGE_CURVE('',#74,#74,#79,.T.);
#81=ORIENTED_EDGE('',*,*,#80,.T.);
#82=EDGE_LOOP('',(#81));
#83=FACE_OUTER_BOUND('',#82,.T.);
#84=CARTESIAN_POINT('',(4.500000000000001,-1.309218E-015,5.510911E-016));
#85=VERTEX_POINT('',#84);
#86=CARTESIAN_POINT('',(1.292135E-031,-1.618717E-015,0.0));
#87=DIRECTION('',(0.0,1.0,0.0));
#88=DIRECTION('',(-1.0,0.0,0.0));
#89=AXIS2_PLACEMENT_3D('',#86,#87,#88);
#90=CIRCLE('',#89,4.500000000000001);
#91=EDGE_CURVE('',#85,#85,#90,.T.);
#92=ORIENTED_EDGE('',*,*,#91,.F.);
#93=EDGE_LOOP('',(#92));
#94=FACE_BOUND('',#93,.T.);
#95=ADVANCED_FACE('',(#83,#94),#72,.F.);
#96=CARTESIAN_POINT('',(-8.066326E-016,4.999999999999998,-1.027984E-016));
#97=DIRECTION('',(0.0,-1.0,0.0));
#98=DIRECTION('',(0.0,0.0,-1.0));
#99=AXIS2_PLACEMENT_3D('',#96,#97,#98);
#100=PLANE('',#99);
#101=ORIENTED_EDGE('',*,*,#80,.F.);
#102=EDGE_LOOP('',(#101));
#103=FACE_OUTER_BOUND('',#102,.T.);
#104=ADVANCED_FACE('',(#103),#100,.T.);
#105=CARTESIAN_POINT('',(-3.843080E-016,4.5,0.0));
#106=DIRECTION('',(-8.540177E-017,1.0,0.0));
#107=DIRECTION('',(0.0,0.0,1.0));
#108=AXIS2_PLACEMENT_3D('',#105,#106,#107);
#109=TOROIDAL_SURFACE('',#108,6.500000000000002,2.0);
#110=CARTESIAN_POINT('',(-8.5,4.499999999999996,0.0));
#111=VERTEX_POINT('',#110);
#112=CARTESIAN_POINT('',(-3.843080E-016,4.499999999999996,0.0));
#113=DIRECTION('',(0.0,1.0,0.0));
#114=DIRECTION('',(-1.0,0.0,0.0));
#115=AXIS2_PLACEMENT_3D('',#112,#113,#114);
#116=CIRCLE('',#115,8.5);
#117=EDGE_CURVE('',#111,#111,#116,.T.);
#118=ORIENTED_EDGE('',*,*,#117,.T.);
#119=EDGE_LOOP('',(#118));
#120=FACE_OUTER_BOUND('',#119,.T.);
#121=CARTESIAN_POINT('',(-6.500000000000002,6.499999999999999,-1.592041E-015));
#122=VERTEX_POINT('',#121);
#123=CARTESIAN_POINT('',(-5.551115E-016,6.499999999999999,0.0));
#124=DIRECTION('',(0.0,-1.0,0.0));
#125=DIRECTION('',(1.0,0.0,0.0));
#126=AXIS2_PLACEMENT_3D('',#123,#124,#125);
#127=CIRCLE('',#126,6.500000000000002);
#128=EDGE_CURVE('',#122,#122,#127,.T.);
#129=ORIENTED_EDGE('',*,*,#128,.T.);
#130=EDGE_LOOP('',(#129));
#131=FACE_BOUND('',#130,.T.);
#132=ADVANCED_FACE('',(#120,#131),#109,.T.);
#133=CARTESIAN_POINT('',(-4.250000000000002,6.499999999999999,0.0));
#134=DIRECTION('',(0.0,1.0,0.0));
#135=DIRECTION('',(0.0,0.0,1.0));
#136=AXIS2_PLACEMENT_3D('',#133,#134,#135);
#137=PLANE('',#136);
#138=ORIENTED_EDGE('',*,*,#128,.F.);
#139=EDGE_LOOP('',(#138));
#140=FACE_OUTER_BOUND('',#139,.T.);
#141=ADVANCED_FACE('',(#140),#137,.T.);
#142=CARTESIAN_POINT('',(-7.125000000000002,4.499999999999996,0.0));
#143=DIRECTION('',(0.0,-1.0,0.0));
#144=DIRECTION('',(0.0,0.0,-1.0));
#145=AXIS2_PLACEMENT_3D('',#142,#143,#144);
#146=PLANE('',#145);
#147=ORIENTED_EDGE('',*,*,#117,.F.);
#148=EDGE_LOOP('',(#147));
#149=FACE_OUTER_BOUND('',#148,.T.);
#150=CARTESIAN_POINT('',(-5.750000000000002,4.499999999999996,0.0));
#151=VERTEX_POINT('',#150);
#152=CARTESIAN_POINT('',(-3.843080E-016,4.499999999999997,0.0));
#153=DIRECTION('',(0.0,1.0,0.0));
#154=DIRECTION('',(-1.0,0.0,0.0));
#155=AXIS2_PLACEMENT_3D('',#152,#153,#154);
#156=CIRCLE('',#155,5.750000000000002);
#157=EDGE_CURVE('',#151,#151,#156,.T.);
#158=ORIENTED_EDGE('',*,*,#157,.T.);
#159=EDGE_LOOP('',(#158));
#160=FACE_BOUND('',#159,.T.);
#161=ADVANCED_FACE('',(#149,#160),#146,.T.);
#162=CARTESIAN_POINT('',(-2.919896950329056,-1.942890E-015,0.0));
#163=DIRECTION('',(0.0,-1.0,0.0));
#164=DIRECTION('',(0.0,0.0,-1.0));
#165=AXIS2_PLACEMENT_3D('',#162,#163,#164);
#166=PLANE('',#165);
#167=CARTESIAN_POINT('',(-5.839793900658111,-3.885781E-015,0.0));
#168=VERTEX_POINT('',#167);
#169=CARTESIAN_POINT('',(2.773339E-031,-3.330669E-015,0.0));
#170=DIRECTION('',(0.0,1.0,0.0));
#171=DIRECTION('',(-1.0,0.0,0.0));
#172=AXIS2_PLACEMENT_3D('',#169,#170,#171);
#173=CIRCLE('',#172,5.839793900658111);
#174=EDGE_CURVE('',#168,#168,#173,.T.);
#175=ORIENTED_EDGE('',*,*,#174,.F.);
#176=EDGE_LOOP('',(#175));
#177=FACE_OUTER_BOUND('',#176,.T.);
#178=ORIENTED_EDGE('',*,*,#91,.T.);
#179=EDGE_LOOP('',(#178));
#180=FACE_BOUND('',#179,.T.);
#181=ADVANCED_FACE('',(#177,#180),#166,.T.);
#182=CARTESIAN_POINT('',(-4.270089E-017,0.499999999999997,0.0));
#183=DIRECTION('',(-8.540177E-017,1.0,0.0));
#184=DIRECTION('',(-1.0,0.0,0.0));
#185=AXIS2_PLACEMENT_3D('',#182,#183,#184);
#186=CYLINDRICAL_SURFACE('',#185,5.839793900658112);
#187=CARTESIAN_POINT('',(-5.839793900658112,0.999999999999996,0.0));
#188=VERTEX_POINT('',#187);
#189=CARTESIAN_POINT('',(-8.540177E-017,0.999999999999997,0.0));
#190=DIRECTION('',(0.0,1.0,0.0));
#191=DIRECTION('',(-1.0,0.0,0.0));
#192=AXIS2_PLACEMENT_3D('',#189,#190,#191);
#193=CIRCLE('',#192,5.839793900658112);
#194=EDGE_CURVE('',#188,#188,#193,.T.);
#195=ORIENTED_EDGE('',*,*,#194,.F.);
#196=EDGE_LOOP('',(#195));
#197=FACE_OUTER_BOUND('',#196,.T.);
#198=ORIENTED_EDGE('',*,*,#174,.T.);
#199=EDGE_LOOP('',(#198));
#200=FACE_BOUND('',#199,.T.);
#201=ADVANCED_FACE('',(#197,#200),#186,.T.);
#202=CARTESIAN_POINT('',(-1.494531E-016,1.749999999999996,0.0));
#203=DIRECTION('',(-8.540177E-017,1.0,0.0));
#204=DIRECTION('',(-1.0,0.0,0.0));
#205=AXIS2_PLACEMENT_3D('',#202,#203,#204);
#206=CONICAL_SURFACE('',#205,6.044896950329056,15.294759313335923);
#207=CARTESIAN_POINT('',(-6.25,2.499999999999996,0.0));
#208=VERTEX_POINT('',#207);
#209=CARTESIAN_POINT('',(-2.135044E-016,2.499999999999996,0.0));
#210=DIRECTION('',(0.0,1.0,0.0));
#211=DIRECTION('',(-1.0,0.0,0.0));
#212=AXIS2_PLACEMENT_3D('',#209,#210,#211);
#213=CIRCLE('',#212,6.25);
#214=EDGE_CURVE('',#208,#208,#213,.T.);
#215=ORIENTED_EDGE('',*,*,#214,.F.);
#216=EDGE_LOOP('',(#215));
#217=FACE_OUTER_BOUND('',#216,.T.);
#218=ORIENTED_EDGE('',*,*,#194,.T.);
#219=EDGE_LOOP('',(#218));
#220=FACE_BOUND('',#219,.T.);
#221=ADVANCED_FACE('',(#217,#220),#206,.T.);
#222=CARTESIAN_POINT('',(-6.000000000000001,2.499999999999996,0.0));
#223=DIRECTION('',(0.0,1.0,0.0));
#224=DIRECTION('',(0.0,0.0,1.0));
#225=AXIS2_PLACEMENT_3D('',#222,#223,#224);
#226=PLANE('',#225);
#227=ORIENTED_EDGE('',*,*,#214,.T.);
#228=EDGE_LOOP('',(#227));
#229=FACE_OUTER_BOUND('',#228,.T.);
#230=CARTESIAN_POINT('',(-5.750000000000002,2.499999999999996,0.0));
#231=VERTEX_POINT('',#230);
#232=CARTESIAN_POINT('',(-2.135044E-016,2.499999999999997,0.0));
#233=DIRECTION('',(0.0,1.0,0.0));
#234=DIRECTION('',(-1.0,0.0,0.0));
#235=AXIS2_PLACEMENT_3D('',#232,#233,#234);
#236=CIRCLE('',#235,5.750000000000002);
#237=EDGE_CURVE('',#231,#231,#236,.T.);
#238=ORIENTED_EDGE('',*,*,#237,.F.);
#239=EDGE_LOOP('',(#238));
#240=FACE_BOUND('',#239,.T.);
#241=ADVANCED_FACE('',(#229,#240),#226,.T.);
#242=CARTESIAN_POINT('',(-2.989062E-016,3.499999999999997,0.0));
#243=DIRECTION('',(-8.540177E-017,1.0,0.0));
#244=DIRECTION('',(-1.0,0.0,0.0));
#245=AXIS2_PLACEMENT_3D('',#242,#243,#244);
#246=CYLINDRICAL_SURFACE('',#245,5.750000000000002);
#247=ORIENTED_EDGE('',*,*,#157,.F.);
#248=EDGE_LOOP('',(#247));
#249=FACE_OUTER_BOUND('',#248,.T.);
#250=ORIENTED_EDGE('',*,*,#237,.T.);
#251=EDGE_LOOP('',(#250));
#252=FACE_BOUND('',#251,.T.);
#253=ADVANCED_FACE('',(#249,#252),#246,.T.);
#254=CLOSED_SHELL('',(#95,#104,#132,#141,#161,#181,#201,#221,#241,#253));
#255=MANIFOLD_SOLID_BREP('Bry\X2\0142\X0\a1',#254);
#256=COLOUR_RGB('Kauczuk - czarny - wersja 1.1',0.25,0.25,0.25);
#257=FILL_AREA_STYLE_COLOUR('Kauczuk - czarny - wersja 1.1',#256);
#258=FILL_AREA_STYLE('Kauczuk - czarny - wersja 1.1',(#257));
#259=SURFACE_STYLE_FILL_AREA(#258);
#260=SURFACE_SIDE_STYLE('Kauczuk - czarny - wersja 1.1',(#259));
#261=SURFACE_STYLE_USAGE(.BOTH.,#260);
#262=PRESENTATION_STYLE_ASSIGNMENT((#261));
#263=STYLED_ITEM('',(#262),#255);
#264=MECHANICAL_DESIGN_GEOMETRIC_PRESENTATION_REPRESENTATION('',(#263),#36);
#265=ADVANCED_BREP_SHAPE_REPRESENTATION('ABSR',(#255),#36);
#266=SHAPE_REPRESENTATION_RELATIONSHIP('SRR','None',#265,#41);
ENDSEC;
END-ISO-10303-21;
