ISO-10303-21;
HEADER;
/****************************************************************
 * Generated by software with PDElib inside                    *
 * PDElib Version v51a, created Wed 11/30/2011                  *
 * ITI Transcendata (http://www.transcendata.com/)              *
 ****************************************************************/
FILE_DESCRIPTION((''),'2;1');
FILE_NAME('\\\\WIN\\Rysunki\\Inventor\\@System profili aluminiowych\\System profili aluminiowych STEP\\AR3492 szczotka.stp','2016-04-19T15:51:06',('Konstruktor II'),(''),'Autodesk Inventor 2013','Autodesk Inventor 2013','');
FILE_SCHEMA(('AUTOMOTIVE_DESIGN { 1 0 10303 214 1 1 1 1 }'));
ENDSEC;
DATA;
#5=APPLICATION_CONTEXT('automotive design');
#6=APPLICATION_PROTOCOL_DEFINITION('International Standard','automotive_design',2001,#5);
#7=PRODUCT_CONTEXT('',#5,'mechanical');
#8=PRODUCT('AR3492 szczotka','AR3492 szczotka',$,(#7));
#9=PRODUCT_RELATED_PRODUCT_CATEGORY('part',$,(#8));
#10=PRODUCT_DEFINITION_FORMATION('',$,#8);
#11=PRODUCT_DEFINITION_CONTEXT('part definition',#5,'design');
#12=PRODUCT_DEFINITION('',$,#10,#11);
#18=(NAMED_UNIT(*)PLANE_ANGLE_UNIT()SI_UNIT($,.RADIAN.));
#19=DIMENSIONAL_EXPONENTS(0.0,0.0,0.0,0.0,0.0,0.0,0.0);
#20=PLANE_ANGLE_MEASURE_WITH_UNIT(PLANE_ANGLE_MEASURE(0.0174532925),#18);
#24=(CONVERSION_BASED_UNIT('DEGREE',#20)NAMED_UNIT(#19)PLANE_ANGLE_UNIT());
#28=(NAMED_UNIT(*)SI_UNIT($,.STERADIAN.)SOLID_ANGLE_UNIT());
#32=(LENGTH_UNIT()NAMED_UNIT(*)SI_UNIT(.MILLI.,.METRE.));
#34=UNCERTAINTY_MEASURE_WITH_UNIT(LENGTH_MEASURE(0.01),#32,'DISTANCE_ACCURACY_VALUE','');
#36=(GEOMETRIC_REPRESENTATION_CONTEXT(3)GLOBAL_UNCERTAINTY_ASSIGNED_CONTEXT((#34))GLOBAL_UNIT_ASSIGNED_CONTEXT((#24,#28,#32))REPRESENTATION_CONTEXT('None','None'));
#37=AXIS2_PLACEMENT_3D('',#38,#39,#40);
#38=CARTESIAN_POINT('',(0.0,0.0,0.0));
#39=DIRECTION('',(0.0,0.0,1.0));
#40=DIRECTION('',(1.0,0.0,0.0));
#41=SHAPE_REPRESENTATION('',(#37),#36);
#42=PRODUCT_DEFINITION_SHAPE('','',#12);
#43=SHAPE_DEFINITION_REPRESENTATION(#42,#41);
#49=(NAMED_UNIT(*)PLANE_ANGLE_UNIT()SI_UNIT($,.RADIAN.));
#50=DIMENSIONAL_EXPONENTS(0.0,0.0,0.0,0.0,0.0,0.0,0.0);
#51=PLANE_ANGLE_MEASURE_WITH_UNIT(PLANE_ANGLE_MEASURE(0.0174532925),#49);
#55=(CONVERSION_BASED_UNIT('DEGREE',#51)NAMED_UNIT(#50)PLANE_ANGLE_UNIT());
#59=(NAMED_UNIT(*)SI_UNIT($,.STERADIAN.)SOLID_ANGLE_UNIT());
#63=(LENGTH_UNIT()NAMED_UNIT(*)SI_UNIT(.MILLI.,.METRE.));
#65=UNCERTAINTY_MEASURE_WITH_UNIT(LENGTH_MEASURE(0.000001),#63,'DISTANCE_ACCURACY_VALUE','');
#67=(GEOMETRIC_REPRESENTATION_CONTEXT(3)GLOBAL_UNCERTAINTY_ASSIGNED_CONTEXT((#65))GLOBAL_UNIT_ASSIGNED_CONTEXT((#55,#59,#63))REPRESENTATION_CONTEXT('','3D'));
#68=CARTESIAN_POINT('',(-15.49773460876516,17.401812688821753,1000.0));
#69=DIRECTION('',(1.0,0.0,0.0));
#70=DIRECTION('',(0.0,0.0,-1.0));
#71=AXIS2_PLACEMENT_3D('',#68,#69,#70);
#72=PLANE('',#71);
#73=CARTESIAN_POINT('',(-15.497734608765468,17.401812688821753,0.0));
#74=VERTEX_POINT('',#73);
#75=CARTESIAN_POINT('',(-15.49773460876516,17.401812688821753,1000.0));
#76=VERTEX_POINT('',#75);
#77=CARTESIAN_POINT('',(-15.497734608765468,17.401812688821753,0.0));
#78=DIRECTION('',(0.0,0.0,1.0));
#79=VECTOR('',#78,1000.0);
#80=LINE('',#77,#79);
#81=EDGE_CURVE('',#74,#76,#80,.T.);
#82=ORIENTED_EDGE('',*,*,#81,.F.);
#83=CARTESIAN_POINT('',(-15.497734608765494,67.401812688821749,0.0));
#84=VERTEX_POINT('',#83);
#85=CARTESIAN_POINT('',(-15.497734608765468,17.401812688821753,0.0));
#86=DIRECTION('',(0.0,1.0,0.0));
#87=VECTOR('',#86,50.0);
#88=LINE('',#85,#87);
#89=EDGE_CURVE('',#74,#84,#88,.T.);
#90=ORIENTED_EDGE('',*,*,#89,.T.);
#91=CARTESIAN_POINT('',(-15.497734608765189,67.401812688821749,1000.0));
#92=VERTEX_POINT('',#91);
#93=CARTESIAN_POINT('',(-15.497734608765189,67.401812688821749,1000.0));
#94=DIRECTION('',(0.0,0.0,-1.0));
#95=VECTOR('',#94,1000.0);
#96=LINE('',#93,#95);
#97=EDGE_CURVE('',#92,#84,#96,.T.);
#98=ORIENTED_EDGE('',*,*,#97,.F.);
#99=CARTESIAN_POINT('',(-15.49773460876516,17.401812688821753,1000.0));
#100=DIRECTION('',(0.0,1.0,0.0));
#101=VECTOR('',#100,50.0);
#102=LINE('',#99,#101);
#103=EDGE_CURVE('',#76,#92,#102,.T.);
#104=ORIENTED_EDGE('',*,*,#103,.F.);
#105=EDGE_LOOP('',(#82,#90,#98,#104));
#106=FACE_OUTER_BOUND('',#105,.T.);
#107=ADVANCED_FACE('',(#106),#72,.T.);
#108=CARTESIAN_POINT('',(-17.497734608765469,17.401812688821753,4.067564E-031));
#109=DIRECTION('',(-1.0,0.0,0.0));
#110=DIRECTION('',(0.0,0.0,1.0));
#111=AXIS2_PLACEMENT_3D('',#108,#109,#110);
#112=PLANE('',#111);
#113=CARTESIAN_POINT('',(-17.497734608765285,17.401812688821753,1000.0));
#114=VERTEX_POINT('',#113);
#115=CARTESIAN_POINT('',(-17.497734608765466,17.401812688821753,0.0));
#116=VERTEX_POINT('',#115);
#117=CARTESIAN_POINT('',(-17.497734608765285,17.401812688821753,1000.0));
#118=DIRECTION('',(0.0,0.0,-1.0));
#119=VECTOR('',#118,1000.0);
#120=LINE('',#117,#119);
#121=EDGE_CURVE('',#114,#116,#120,.T.);
#122=ORIENTED_EDGE('',*,*,#121,.F.);
#123=CARTESIAN_POINT('',(-17.497734608765313,67.401812688821749,1000.0));
#124=VERTEX_POINT('',#123);
#125=CARTESIAN_POINT('',(-17.497734608765285,17.401812688821753,1000.0));
#126=DIRECTION('',(0.0,1.0,0.0));
#127=VECTOR('',#126,50.0);
#128=LINE('',#125,#127);
#129=EDGE_CURVE('',#114,#124,#128,.T.);
#130=ORIENTED_EDGE('',*,*,#129,.T.);
#131=CARTESIAN_POINT('',(-17.497734608765494,67.401812688821749,0.0));
#132=VERTEX_POINT('',#131);
#133=CARTESIAN_POINT('',(-17.497734608765498,67.401812688821749,4.067564E-031));
#134=DIRECTION('',(0.0,0.0,1.0));
#135=VECTOR('',#134,1000.0);
#136=LINE('',#133,#135);
#137=EDGE_CURVE('',#132,#124,#136,.T.);
#138=ORIENTED_EDGE('',*,*,#137,.F.);
#139=CARTESIAN_POINT('',(-17.497734608765466,17.401812688821753,0.0));
#140=DIRECTION('',(0.0,1.0,0.0));
#141=VECTOR('',#140,50.0);
#142=LINE('',#139,#141);
#143=EDGE_CURVE('',#116,#132,#142,.T.);
#144=ORIENTED_EDGE('',*,*,#143,.F.);
#145=EDGE_LOOP('',(#122,#130,#138,#144));
#146=FACE_OUTER_BOUND('',#145,.T.);
#147=ADVANCED_FACE('',(#146),#112,.T.);
#148=CARTESIAN_POINT('',(-16.49773460876537,67.401812688821749,500.0));
#149=DIRECTION('',(0.0,-1.0,0.0));
#150=DIRECTION('',(0.0,0.0,-1.0));
#151=AXIS2_PLACEMENT_3D('',#148,#149,#150);
#152=PLANE('',#151);
#153=ORIENTED_EDGE('',*,*,#137,.T.);
#154=CARTESIAN_POINT('',(-17.497734608765313,67.401812688821749,1000.0));
#155=DIRECTION('',(1.0,0.0,0.0));
#156=VECTOR('',#155,2.000000000000124);
#157=LINE('',#154,#156);
#158=EDGE_CURVE('',#124,#92,#157,.T.);
#159=ORIENTED_EDGE('',*,*,#158,.T.);
#160=ORIENTED_EDGE('',*,*,#97,.T.);
#161=CARTESIAN_POINT('',(-15.497734608765494,67.401812688821749,0.0));
#162=DIRECTION('',(-1.0,0.0,0.0));
#163=VECTOR('',#162,2.0);
#164=LINE('',#161,#163);
#165=EDGE_CURVE('',#84,#132,#164,.T.);
#166=ORIENTED_EDGE('',*,*,#165,.T.);
#167=EDGE_LOOP('',(#153,#159,#160,#166));
#168=FACE_OUTER_BOUND('',#167,.T.);
#169=ADVANCED_FACE('',(#168),#152,.F.);
#170=CARTESIAN_POINT('',(-12.247734608765315,17.401812688821753,0.0));
#171=DIRECTION('',(0.0,1.0,0.0));
#172=DIRECTION('',(-1.0,0.0,0.0));
#173=AXIS2_PLACEMENT_3D('',#170,#171,#172);
#174=PLANE('',#173);
#175=ORIENTED_EDGE('',*,*,#81,.T.);
#176=CARTESIAN_POINT('',(-12.247734608765315,17.401812688821753,1000.0));
#177=VERTEX_POINT('',#176);
#178=CARTESIAN_POINT('',(-12.247734608765315,17.401812688821753,1000.0));
#179=DIRECTION('',(-1.0,0.0,0.0));
#180=VECTOR('',#179,3.249999999999846);
#181=LINE('',#178,#180);
#182=EDGE_CURVE('',#177,#76,#181,.T.);
#183=ORIENTED_EDGE('',*,*,#182,.F.);
#184=CARTESIAN_POINT('',(-12.247734608765315,17.401812688821753,0.0));
#185=VERTEX_POINT('',#184);
#186=CARTESIAN_POINT('',(-12.247734608765315,17.401812688821753,0.0));
#187=DIRECTION('',(0.0,0.0,1.0));
#188=VECTOR('',#187,1000.0);
#189=LINE('',#186,#188);
#190=EDGE_CURVE('',#185,#177,#189,.T.);
#191=ORIENTED_EDGE('',*,*,#190,.F.);
#192=CARTESIAN_POINT('',(-12.247734608765315,17.401812688821753,0.0));
#193=DIRECTION('',(-1.0,0.0,0.0));
#194=VECTOR('',#193,3.250000000000153);
#195=LINE('',#192,#194);
#196=EDGE_CURVE('',#185,#74,#195,.T.);
#197=ORIENTED_EDGE('',*,*,#196,.T.);
#198=EDGE_LOOP('',(#175,#183,#191,#197));
#199=FACE_OUTER_BOUND('',#198,.T.);
#200=ADVANCED_FACE('',(#199),#174,.T.);
#201=CARTESIAN_POINT('',(-12.247734608765315,17.401812688821753,0.0));
#202=DIRECTION('',(0.0,1.0,0.0));
#203=DIRECTION('',(-1.0,0.0,0.0));
#204=AXIS2_PLACEMENT_3D('',#201,#202,#203);
#205=PLANE('',#204);
#206=ORIENTED_EDGE('',*,*,#121,.T.);
#207=CARTESIAN_POINT('',(-20.747734608765317,17.401812688821749,0.0));
#208=VERTEX_POINT('',#207);
#209=CARTESIAN_POINT('',(-17.497734608765469,17.401812688821749,0.0));
#210=DIRECTION('',(-1.0,0.0,0.0));
#211=VECTOR('',#210,3.249999999999844);
#212=LINE('',#209,#211);
#213=EDGE_CURVE('',#116,#208,#212,.T.);
#214=ORIENTED_EDGE('',*,*,#213,.T.);
#215=CARTESIAN_POINT('',(-20.747734608765317,17.401812688821749,1000.0));
#216=VERTEX_POINT('',#215);
#217=CARTESIAN_POINT('',(-20.747734608765317,17.401812688821749,0.0));
#218=DIRECTION('',(0.0,0.0,1.0));
#219=VECTOR('',#218,1000.0);
#220=LINE('',#217,#219);
#221=EDGE_CURVE('',#208,#216,#220,.T.);
#222=ORIENTED_EDGE('',*,*,#221,.T.);
#223=CARTESIAN_POINT('',(-17.497734608765285,17.401812688821749,1000.0));
#224=DIRECTION('',(-1.0,0.0,0.0));
#225=VECTOR('',#224,3.250000000000028);
#226=LINE('',#223,#225);
#227=EDGE_CURVE('',#114,#216,#226,.T.);
#228=ORIENTED_EDGE('',*,*,#227,.F.);
#229=EDGE_LOOP('',(#206,#214,#222,#228));
#230=FACE_OUTER_BOUND('',#229,.T.);
#231=ADVANCED_FACE('',(#230),#205,.T.);
#232=CARTESIAN_POINT('',(-12.247734608765315,7.401812688821755,0.0));
#233=DIRECTION('',(1.0,0.0,0.0));
#234=DIRECTION('',(0.0,1.0,0.0));
#235=AXIS2_PLACEMENT_3D('',#232,#233,#234);
#236=PLANE('',#235);
#237=CARTESIAN_POINT('',(-12.247734608765315,7.401812688821755,0.0));
#238=VERTEX_POINT('',#237);
#239=CARTESIAN_POINT('',(-12.247734608765315,7.401812688821755,0.0));
#240=DIRECTION('',(0.0,1.0,0.0));
#241=VECTOR('',#240,9.999999999999998);
#242=LINE('',#239,#241);
#243=EDGE_CURVE('',#238,#185,#242,.T.);
#244=ORIENTED_EDGE('',*,*,#243,.T.);
#245=ORIENTED_EDGE('',*,*,#190,.T.);
#246=CARTESIAN_POINT('',(-12.247734608765315,7.401812688821755,1000.0));
#247=VERTEX_POINT('',#246);
#248=CARTESIAN_POINT('',(-12.247734608765315,7.401812688821755,1000.0));
#249=DIRECTION('',(0.0,1.0,0.0));
#250=VECTOR('',#249,9.999999999999998);
#251=LINE('',#248,#250);
#252=EDGE_CURVE('',#247,#177,#251,.T.);
#253=ORIENTED_EDGE('',*,*,#252,.F.);
#254=CARTESIAN_POINT('',(-12.247734608765315,7.401812688821755,0.0));
#255=DIRECTION('',(0.0,0.0,1.0));
#256=VECTOR('',#255,1000.0);
#257=LINE('',#254,#256);
#258=EDGE_CURVE('',#238,#247,#257,.T.);
#259=ORIENTED_EDGE('',*,*,#258,.F.);
#260=EDGE_LOOP('',(#244,#245,#253,#259));
#261=FACE_OUTER_BOUND('',#260,.T.);
#262=ADVANCED_FACE('',(#261),#236,.T.);
#263=CARTESIAN_POINT('',(-18.247734608765313,7.40181268882175,0.0));
#264=DIRECTION('',(0.0,-1.0,0.0));
#265=DIRECTION('',(1.0,0.0,0.0));
#266=AXIS2_PLACEMENT_3D('',#263,#264,#265);
#267=PLANE('',#266);
#268=CARTESIAN_POINT('',(-18.247734608765313,7.40181268882175,0.0));
#269=VERTEX_POINT('',#268);
#270=CARTESIAN_POINT('',(-18.247734608765313,7.40181268882175,0.0));
#271=DIRECTION('',(1.0,0.0,0.0));
#272=VECTOR('',#271,5.999999999999996);
#273=LINE('',#270,#272);
#274=EDGE_CURVE('',#269,#238,#273,.T.);
#275=ORIENTED_EDGE('',*,*,#274,.T.);
#276=ORIENTED_EDGE('',*,*,#258,.T.);
#277=CARTESIAN_POINT('',(-18.247734608765313,7.40181268882175,1000.0));
#278=VERTEX_POINT('',#277);
#279=CARTESIAN_POINT('',(-18.247734608765313,7.40181268882175,1000.0));
#280=DIRECTION('',(1.0,0.0,0.0));
#281=VECTOR('',#280,5.999999999999996);
#282=LINE('',#279,#281);
#283=EDGE_CURVE('',#278,#247,#282,.T.);
#284=ORIENTED_EDGE('',*,*,#283,.F.);
#285=CARTESIAN_POINT('',(-18.247734608765313,7.40181268882175,0.0));
#286=DIRECTION('',(0.0,0.0,1.0));
#287=VECTOR('',#286,1000.0);
#288=LINE('',#285,#287);
#289=EDGE_CURVE('',#269,#278,#288,.T.);
#290=ORIENTED_EDGE('',*,*,#289,.F.);
#291=EDGE_LOOP('',(#275,#276,#284,#290));
#292=FACE_OUTER_BOUND('',#291,.T.);
#293=ADVANCED_FACE('',(#292),#267,.T.);
#294=CARTESIAN_POINT('',(-18.247734608765313,-22.598187311178251,0.0));
#295=DIRECTION('',(1.0,0.0,0.0));
#296=DIRECTION('',(0.0,1.0,0.0));
#297=AXIS2_PLACEMENT_3D('',#294,#295,#296);
#298=PLANE('',#297);
#299=CARTESIAN_POINT('',(-18.247734608765313,-22.598187311178251,0.0));
#300=VERTEX_POINT('',#299);
#301=CARTESIAN_POINT('',(-18.247734608765313,-22.598187311178251,0.0));
#302=DIRECTION('',(0.0,1.0,0.0));
#303=VECTOR('',#302,30.0);
#304=LINE('',#301,#303);
#305=EDGE_CURVE('',#300,#269,#304,.T.);
#306=ORIENTED_EDGE('',*,*,#305,.T.);
#307=ORIENTED_EDGE('',*,*,#289,.T.);
#308=CARTESIAN_POINT('',(-18.247734608765313,-22.598187311178251,1000.0));
#309=VERTEX_POINT('',#308);
#310=CARTESIAN_POINT('',(-18.247734608765313,-22.598187311178251,1000.0));
#311=DIRECTION('',(0.0,1.0,0.0));
#312=VECTOR('',#311,30.0);
#313=LINE('',#310,#312);
#314=EDGE_CURVE('',#309,#278,#313,.T.);
#315=ORIENTED_EDGE('',*,*,#314,.F.);
#316=CARTESIAN_POINT('',(-18.247734608765313,-22.598187311178251,0.0));
#317=DIRECTION('',(0.0,0.0,1.0));
#318=VECTOR('',#317,1000.0);
#319=LINE('',#316,#318);
#320=EDGE_CURVE('',#300,#309,#319,.T.);
#321=ORIENTED_EDGE('',*,*,#320,.F.);
#322=EDGE_LOOP('',(#306,#307,#315,#321));
#323=FACE_OUTER_BOUND('',#322,.T.);
#324=ADVANCED_FACE('',(#323),#298,.T.);
#325=CARTESIAN_POINT('',(-20.747734608765306,-22.598187311178251,0.0));
#326=DIRECTION('',(0.0,-1.0,0.0));
#327=DIRECTION('',(1.0,0.0,0.0));
#328=AXIS2_PLACEMENT_3D('',#325,#326,#327);
#329=PLANE('',#328);
#330=CARTESIAN_POINT('',(-20.747734608765306,-22.598187311178251,0.0));
#331=VERTEX_POINT('',#330);
#332=CARTESIAN_POINT('',(-20.747734608765306,-22.598187311178251,0.0));
#333=DIRECTION('',(1.0,0.0,0.0));
#334=VECTOR('',#333,2.499999999999996);
#335=LINE('',#332,#334);
#336=EDGE_CURVE('',#331,#300,#335,.T.);
#337=ORIENTED_EDGE('',*,*,#336,.T.);
#338=ORIENTED_EDGE('',*,*,#320,.T.);
#339=CARTESIAN_POINT('',(-20.747734608765306,-22.598187311178251,1000.0));
#340=VERTEX_POINT('',#339);
#341=CARTESIAN_POINT('',(-20.747734608765306,-22.598187311178251,1000.0));
#342=DIRECTION('',(1.0,0.0,0.0));
#343=VECTOR('',#342,2.499999999999996);
#344=LINE('',#341,#343);
#345=EDGE_CURVE('',#340,#309,#344,.T.);
#346=ORIENTED_EDGE('',*,*,#345,.F.);
#347=CARTESIAN_POINT('',(-20.747734608765306,-22.598187311178251,0.0));
#348=DIRECTION('',(0.0,0.0,1.0));
#349=VECTOR('',#348,1000.0);
#350=LINE('',#347,#349);
#351=EDGE_CURVE('',#331,#340,#350,.T.);
#352=ORIENTED_EDGE('',*,*,#351,.F.);
#353=EDGE_LOOP('',(#337,#338,#346,#352));
#354=FACE_OUTER_BOUND('',#353,.T.);
#355=ADVANCED_FACE('',(#354),#329,.T.);
#356=CARTESIAN_POINT('',(-20.747734608765317,17.401812688821749,0.0));
#357=DIRECTION('',(-1.0,0.0,0.0));
#358=DIRECTION('',(0.0,-1.0,0.0));
#359=AXIS2_PLACEMENT_3D('',#356,#357,#358);
#360=PLANE('',#359);
#361=CARTESIAN_POINT('',(-20.747734608765317,17.401812688821749,0.0));
#362=DIRECTION('',(0.0,-1.0,0.0));
#363=VECTOR('',#362,40.0);
#364=LINE('',#361,#363);
#365=EDGE_CURVE('',#208,#331,#364,.T.);
#366=ORIENTED_EDGE('',*,*,#365,.T.);
#367=ORIENTED_EDGE('',*,*,#351,.T.);
#368=CARTESIAN_POINT('',(-20.747734608765317,17.401812688821749,1000.0));
#369=DIRECTION('',(0.0,-1.0,0.0));
#370=VECTOR('',#369,40.0);
#371=LINE('',#368,#370);
#372=EDGE_CURVE('',#216,#340,#371,.T.);
#373=ORIENTED_EDGE('',*,*,#372,.F.);
#374=ORIENTED_EDGE('',*,*,#221,.F.);
#375=EDGE_LOOP('',(#366,#367,#373,#374));
#376=FACE_OUTER_BOUND('',#375,.T.);
#377=ADVANCED_FACE('',(#376),#360,.T.);
#378=CARTESIAN_POINT('',(-18.353404711858094,-0.742517208085465,1000.0));
#379=DIRECTION('',(0.0,0.0,1.0));
#380=DIRECTION('',(1.0,0.0,0.0));
#381=AXIS2_PLACEMENT_3D('',#378,#379,#380);
#382=PLANE('',#381);
#383=ORIENTED_EDGE('',*,*,#372,.T.);
#384=ORIENTED_EDGE('',*,*,#345,.T.);
#385=ORIENTED_EDGE('',*,*,#314,.T.);
#386=ORIENTED_EDGE('',*,*,#283,.T.);
#387=ORIENTED_EDGE('',*,*,#252,.T.);
#388=ORIENTED_EDGE('',*,*,#182,.T.);
#389=ORIENTED_EDGE('',*,*,#103,.T.);
#390=ORIENTED_EDGE('',*,*,#158,.F.);
#391=ORIENTED_EDGE('',*,*,#129,.F.);
#392=ORIENTED_EDGE('',*,*,#227,.T.);
#393=EDGE_LOOP('',(#383,#384,#385,#386,#387,#388,#389,#390,#391,#392));
#394=FACE_OUTER_BOUND('',#393,.T.);
#395=ADVANCED_FACE('',(#394),#382,.T.);
#396=CARTESIAN_POINT('',(-18.353404711858094,-0.742517208085465,0.0));
#397=DIRECTION('',(0.0,0.0,1.0));
#398=DIRECTION('',(1.0,0.0,0.0));
#399=AXIS2_PLACEMENT_3D('',#396,#397,#398);
#400=PLANE('',#399);
#401=ORIENTED_EDGE('',*,*,#365,.F.);
#402=ORIENTED_EDGE('',*,*,#213,.F.);
#403=ORIENTED_EDGE('',*,*,#143,.T.);
#404=ORIENTED_EDGE('',*,*,#165,.F.);
#405=ORIENTED_EDGE('',*,*,#89,.F.);
#406=ORIENTED_EDGE('',*,*,#196,.F.);
#407=ORIENTED_EDGE('',*,*,#243,.F.);
#408=ORIENTED_EDGE('',*,*,#274,.F.);
#409=ORIENTED_EDGE('',*,*,#305,.F.);
#410=ORIENTED_EDGE('',*,*,#336,.F.);
#411=EDGE_LOOP('',(#401,#402,#403,#404,#405,#406,#407,#408,#409,#410));
#412=FACE_OUTER_BOUND('',#411,.T.);
#413=ADVANCED_FACE('',(#412),#400,.F.);
#414=CLOSED_SHELL('',(#107,#147,#169,#200,#231,#262,#293,#324,#355,#377,#395,#413));
#415=MANIFOLD_SOLID_BREP('Bry\X2\0142\X0\a1',#414);
#416=COLOUR_RGB('',0.117647059261799,0.0,0.0);
#417=FILL_AREA_STYLE_COLOUR('',#416);
#418=FILL_AREA_STYLE('',(#417));
#419=SURFACE_STYLE_FILL_AREA(#418);
#420=SURFACE_SIDE_STYLE('',(#419));
#421=SURFACE_STYLE_USAGE(.BOTH.,#420);
#422=PRESENTATION_STYLE_ASSIGNMENT((#421));
#423=STYLED_ITEM('',(#422),#107);
#424=STYLED_ITEM('',(#422),#147);
#425=STYLED_ITEM('',(#422),#169);
#426=MECHANICAL_DESIGN_GEOMETRIC_PRESENTATION_REPRESENTATION('',(#423,#424,#425,#434),#67);
#427=COLOUR_RGB('Domy\X2\FFFD\X0\lna',0.75,0.75,0.75);
#428=FILL_AREA_STYLE_COLOUR('Domy\X2\FFFD\X0\lna',#427);
#429=FILL_AREA_STYLE('Domy\X2\FFFD\X0\lna',(#428));
#430=SURFACE_STYLE_FILL_AREA(#429);
#431=SURFACE_SIDE_STYLE('Domy\X2\FFFD\X0\lna',(#430));
#432=SURFACE_STYLE_USAGE(.BOTH.,#431);
#433=PRESENTATION_STYLE_ASSIGNMENT((#432));
#434=STYLED_ITEM('',(#433),#415);
#435=ADVANCED_BREP_SHAPE_REPRESENTATION('ABSR',(#415),#36);
#436=SHAPE_REPRESENTATION_RELATIONSHIP('SRR','None',#435,#41);
ENDSEC;
END-ISO-10303-21;
