ISO-10303-21;
HEADER;
/****************************************************************
 * Generated by software with PDElib inside                    *
 * PDElib Version v51a, created Wed 11/30/2011                  *
 * ITI Transcendata (http://www.transcendata.com/)              *
 ****************************************************************/
FILE_DESCRIPTION((''),'2;1');
FILE_NAME('\\\\WIN\\Rysunki\\Inventor\\@System profili aluminiowych\\System profili aluminiowych STEP ARMA\\AR3485.stp','2016-06-14T15:59:28',('Konstruktor II'),(''),'Autodesk Inventor 2013','Autodesk Inventor 2013','');
FILE_SCHEMA(('AUTOMOTIVE_DESIGN { 1 0 10303 214 1 1 1 1 }'));
ENDSEC;
DATA;
#5=APPLICATION_CONTEXT('automotive design');
#6=APPLICATION_PROTOCOL_DEFINITION('International Standard','automotive_design',2001,#5);
#7=PRODUCT_CONTEXT('',#5,'mechanical');
#8=PRODUCT('AR3485','AR3485',$,(#7));
#9=PRODUCT_RELATED_PRODUCT_CATEGORY('part',$,(#8));
#10=PRODUCT_DEFINITION_FORMATION('',$,#8);
#11=PRODUCT_DEFINITION_CONTEXT('part definition',#5,'design');
#12=PRODUCT_DEFINITION('',$,#10,#11);
#18=(NAMED_UNIT(*)PLANE_ANGLE_UNIT()SI_UNIT($,.RADIAN.));
#19=DIMENSIONAL_EXPONENTS(0.0,0.0,0.0,0.0,0.0,0.0,0.0);
#20=PLANE_ANGLE_MEASURE_WITH_UNIT(PLANE_ANGLE_MEASURE(0.0174532925),#18);
#24=(CONVERSION_BASED_UNIT('DEGREE',#20)NAMED_UNIT(#19)PLANE_ANGLE_UNIT());
#28=(NAMED_UNIT(*)SI_UNIT($,.STERADIAN.)SOLID_ANGLE_UNIT());
#32=(LENGTH_UNIT()NAMED_UNIT(*)SI_UNIT(.MILLI.,.METRE.));
#34=UNCERTAINTY_MEASURE_WITH_UNIT(LENGTH_MEASURE(0.01),#32,'DISTANCE_ACCURACY_VALUE','');
#36=(GEOMETRIC_REPRESENTATION_CONTEXT(3)GLOBAL_UNCERTAINTY_ASSIGNED_CONTEXT((#34))GLOBAL_UNIT_ASSIGNED_CONTEXT((#24,#28,#32))REPRESENTATION_CONTEXT('None','None'));
#37=AXIS2_PLACEMENT_3D('',#38,#39,#40);
#38=CARTESIAN_POINT('',(0.0,0.0,0.0));
#39=DIRECTION('',(0.0,0.0,1.0));
#40=DIRECTION('',(1.0,0.0,0.0));
#41=SHAPE_REPRESENTATION('',(#37),#36);
#42=PRODUCT_DEFINITION_SHAPE('','',#12);
#43=SHAPE_DEFINITION_REPRESENTATION(#42,#41);
#49=(NAMED_UNIT(*)PLANE_ANGLE_UNIT()SI_UNIT($,.RADIAN.));
#50=DIMENSIONAL_EXPONENTS(0.0,0.0,0.0,0.0,0.0,0.0,0.0);
#51=PLANE_ANGLE_MEASURE_WITH_UNIT(PLANE_ANGLE_MEASURE(0.0174532925),#49);
#55=(CONVERSION_BASED_UNIT('DEGREE',#51)NAMED_UNIT(#50)PLANE_ANGLE_UNIT());
#59=(NAMED_UNIT(*)SI_UNIT($,.STERADIAN.)SOLID_ANGLE_UNIT());
#63=(LENGTH_UNIT()NAMED_UNIT(*)SI_UNIT(.MILLI.,.METRE.));
#65=UNCERTAINTY_MEASURE_WITH_UNIT(LENGTH_MEASURE(0.000001),#63,'DISTANCE_ACCURACY_VALUE','');
#67=(GEOMETRIC_REPRESENTATION_CONTEXT(3)GLOBAL_UNCERTAINTY_ASSIGNED_CONTEXT((#65))GLOBAL_UNIT_ASSIGNED_CONTEXT((#55,#59,#63))REPRESENTATION_CONTEXT('','3D'));
#68=CARTESIAN_POINT('',(-14.591836734693878,-24.489798081918437,0.0));
#69=DIRECTION('',(0.0,-1.0,0.0));
#70=DIRECTION('',(0.0,0.0,-1.0));
#71=AXIS2_PLACEMENT_3D('',#68,#69,#70);
#72=PLANE('',#71);
#73=CARTESIAN_POINT('',(-9.591836734693874,-24.489798081918437,-6.123234E-016));
#74=VERTEX_POINT('',#73);
#75=CARTESIAN_POINT('',(-14.591836734693874,-24.489798081918437,0.0));
#76=DIRECTION('',(0.0,1.0,0.0));
#77=DIRECTION('',(-1.0,0.0,0.0));
#78=AXIS2_PLACEMENT_3D('',#75,#76,#77);
#79=CIRCLE('',#78,5.0);
#80=EDGE_CURVE('',#74,#74,#79,.T.);
#81=ORIENTED_EDGE('',*,*,#80,.T.);
#82=EDGE_LOOP('',(#81));
#83=FACE_OUTER_BOUND('',#82,.T.);
#84=ADVANCED_FACE('',(#83),#72,.F.);
#85=CARTESIAN_POINT('',(-14.591836734693873,-16.489798081918433,-9.251859E-017));
#86=DIRECTION('',(0.0,-1.0,0.0));
#87=DIRECTION('',(0.0,0.0,-1.0));
#88=AXIS2_PLACEMENT_3D('',#85,#86,#87);
#89=PLANE('',#88);
#90=CARTESIAN_POINT('',(-19.591836734693874,-16.489798081918433,0.0));
#91=VERTEX_POINT('',#90);
#92=CARTESIAN_POINT('',(-14.591836734693874,-16.489798081918433,0.0));
#93=DIRECTION('',(0.0,1.0,0.0));
#94=DIRECTION('',(-1.0,0.0,0.0));
#95=AXIS2_PLACEMENT_3D('',#92,#93,#94);
#96=CIRCLE('',#95,5.0);
#97=EDGE_CURVE('',#91,#91,#96,.T.);
#98=ORIENTED_EDGE('',*,*,#97,.F.);
#99=EDGE_LOOP('',(#98));
#100=FACE_OUTER_BOUND('',#99,.T.);
#101=ADVANCED_FACE('',(#100),#89,.T.);
#102=CARTESIAN_POINT('',(-14.591836734693874,-16.489798081918433,0.0));
#103=DIRECTION('',(9.251859E-017,-1.0,0.0));
#104=DIRECTION('',(-1.0,0.0,0.0));
#105=AXIS2_PLACEMENT_3D('',#102,#103,#104);
#106=CYLINDRICAL_SURFACE('',#105,5.0);
#107=ORIENTED_EDGE('',*,*,#80,.F.);
#108=EDGE_LOOP('',(#107));
#109=FACE_OUTER_BOUND('',#108,.T.);
#110=CARTESIAN_POINT('',(-14.591836734693874,-16.489798081918433,0.0));
#111=DIRECTION('',(0.0,1.0,0.0));
#112=DIRECTION('',(-1.0,0.0,0.0));
#113=AXIS2_PLACEMENT_3D('',#110,#111,#112);
#114=CIRCLE('',#113,5.0);
#115=EDGE_CURVE('',#91,#91,#114,.T.);
#116=ORIENTED_EDGE('',*,*,#115,.T.);
#117=EDGE_LOOP('',(#116));
#118=FACE_BOUND('',#117,.T.);
#119=ADVANCED_FACE('',(#109,#118),#106,.F.);
#120=CARTESIAN_POINT('',(-18.591836734693878,-16.489798081918433,-6.928203230275511));
#121=DIRECTION('',(0.0,0.0,-1.0));
#122=DIRECTION('',(1.0,0.0,0.0));
#123=AXIS2_PLACEMENT_3D('',#120,#121,#122);
#124=PLANE('',#123);
#125=CARTESIAN_POINT('',(-18.591836734693874,-24.489798081918437,-6.928203230275511));
#126=VERTEX_POINT('',#125);
#127=CARTESIAN_POINT('',(-10.591836734693869,-24.489798081918437,-6.928203230275507));
#128=VERTEX_POINT('',#127);
#129=CARTESIAN_POINT('',(-18.591836734693874,-24.489798081918437,-6.928203230275511));
#130=DIRECTION('',(1.0,0.0,0.0));
#131=VECTOR('',#130,8.000000000000007);
#132=LINE('',#129,#131);
#133=EDGE_CURVE('',#126,#128,#132,.T.);
#134=ORIENTED_EDGE('',*,*,#133,.F.);
#135=CARTESIAN_POINT('',(-18.591836734693878,-16.489798081918433,-6.928203230275511));
#136=VERTEX_POINT('',#135);
#137=CARTESIAN_POINT('',(-18.591836734693874,-16.489798081918433,-6.928203230275511));
#138=DIRECTION('',(0.0,-1.0,0.0));
#139=VECTOR('',#138,8.000000000000004);
#140=LINE('',#137,#139);
#141=EDGE_CURVE('',#136,#126,#140,.T.);
#142=ORIENTED_EDGE('',*,*,#141,.F.);
#143=CARTESIAN_POINT('',(-10.591836734693869,-16.489798081918433,-6.928203230275506));
#144=VERTEX_POINT('',#143);
#145=CARTESIAN_POINT('',(-10.591836734693869,-16.489798081918433,-6.928203230275506));
#146=DIRECTION('',(-1.0,0.0,0.0));
#147=VECTOR('',#146,8.000000000000009);
#148=LINE('',#145,#147);
#149=EDGE_CURVE('',#144,#136,#148,.T.);
#150=ORIENTED_EDGE('',*,*,#149,.F.);
#151=CARTESIAN_POINT('',(-10.591836734693867,-24.489798081918437,-6.928203230275506));
#152=DIRECTION('',(0.0,1.0,0.0));
#153=VECTOR('',#152,8.000000000000004);
#154=LINE('',#151,#153);
#155=EDGE_CURVE('',#128,#144,#154,.T.);
#156=ORIENTED_EDGE('',*,*,#155,.F.);
#157=EDGE_LOOP('',(#134,#142,#150,#156));
#158=FACE_OUTER_BOUND('',#157,.T.);
#159=ADVANCED_FACE('',(#158),#124,.T.);
#160=CARTESIAN_POINT('',(-10.591836734693869,-16.489798081918433,-6.928203230275508));
#161=DIRECTION('',(0.866025403784439,0.0,-0.499999999999999));
#162=DIRECTION('',(0.499999999999999,5.349157E-017,0.866025403784439));
#163=AXIS2_PLACEMENT_3D('',#160,#161,#162);
#164=PLANE('',#163);
#165=CARTESIAN_POINT('',(-6.591836734693874,-24.489798081918437,8.326673E-015));
#166=VERTEX_POINT('',#165);
#167=CARTESIAN_POINT('',(-10.591836734693867,-24.489798081918437,-6.928203230275508));
#168=DIRECTION('',(0.499999999999999,0.0,0.866025403784439));
#169=VECTOR('',#168,8.000000000000004);
#170=LINE('',#167,#169);
#171=EDGE_CURVE('',#128,#166,#170,.T.);
#172=ORIENTED_EDGE('',*,*,#171,.F.);
#173=ORIENTED_EDGE('',*,*,#155,.T.);
#174=CARTESIAN_POINT('',(-6.591836734693874,-16.489798081918433,-9.797174E-016));
#175=VERTEX_POINT('',#174);
#176=CARTESIAN_POINT('',(-6.591836734693876,-16.48979808191843,-8.881784E-016));
#177=DIRECTION('',(-0.499999999999999,0.0,-0.866025403784439));
#178=VECTOR('',#177,7.999999999999994);
#179=LINE('',#176,#178);
#180=EDGE_CURVE('',#175,#144,#179,.T.);
#181=ORIENTED_EDGE('',*,*,#180,.F.);
#182=CARTESIAN_POINT('',(-6.591836734693874,-24.489798081918437,9.436896E-015));
#183=DIRECTION('',(0.0,1.0,0.0));
#184=VECTOR('',#183,8.000000000000004);
#185=LINE('',#182,#184);
#186=EDGE_CURVE('',#166,#175,#185,.T.);
#187=ORIENTED_EDGE('',*,*,#186,.F.);
#188=EDGE_LOOP('',(#172,#173,#181,#187));
#189=FACE_OUTER_BOUND('',#188,.T.);
#190=ADVANCED_FACE('',(#189),#164,.T.);
#191=CARTESIAN_POINT('',(-6.591836734693874,-16.489798081918433,7.771561E-015));
#192=DIRECTION('',(0.866025403784438,0.0,0.500000000000001));
#193=DIRECTION('',(-0.500000000000001,-5.349157E-017,0.866025403784438));
#194=AXIS2_PLACEMENT_3D('',#191,#192,#193);
#195=PLANE('',#194);
#196=CARTESIAN_POINT('',(-10.591836734693878,-24.489798081918437,6.928203230275512));
#197=VERTEX_POINT('',#196);
#198=CARTESIAN_POINT('',(-6.591836734693873,-24.489798081918437,7.549517E-015));
#199=DIRECTION('',(-0.500000000000001,0.0,0.866025403784438));
#200=VECTOR('',#199,8.0);
#201=LINE('',#198,#200);
#202=EDGE_CURVE('',#166,#197,#201,.T.);
#203=ORIENTED_EDGE('',*,*,#202,.F.);
#204=ORIENTED_EDGE('',*,*,#186,.T.);
#205=CARTESIAN_POINT('',(-10.59183673469388,-16.489798081918433,6.928203230275512));
#206=VERTEX_POINT('',#205);
#207=CARTESIAN_POINT('',(-10.59183673469388,-16.48979808191843,6.928203230275514));
#208=DIRECTION('',(0.500000000000001,0.0,-0.866025403784438));
#209=VECTOR('',#208,8.000000000000007);
#210=LINE('',#207,#209);
#211=EDGE_CURVE('',#206,#175,#210,.T.);
#212=ORIENTED_EDGE('',*,*,#211,.F.);
#213=CARTESIAN_POINT('',(-10.59183673469388,-24.489798081918437,6.928203230275514));
#214=DIRECTION('',(0.0,1.0,0.0));
#215=VECTOR('',#214,8.000000000000004);
#216=LINE('',#213,#215);
#217=EDGE_CURVE('',#197,#206,#216,.T.);
#218=ORIENTED_EDGE('',*,*,#217,.F.);
#219=EDGE_LOOP('',(#203,#204,#212,#218));
#220=FACE_OUTER_BOUND('',#219,.T.);
#221=ADVANCED_FACE('',(#220),#195,.T.);
#222=CARTESIAN_POINT('',(-10.59183673469388,-16.489798081918433,6.928203230275512));
#223=DIRECTION('',(0.0,0.0,1.0));
#224=DIRECTION('',(-1.0,0.0,0.0));
#225=AXIS2_PLACEMENT_3D('',#222,#223,#224);
#226=PLANE('',#225);
#227=CARTESIAN_POINT('',(-18.591836734693878,-24.489798081918437,6.928203230275508));
#228=VERTEX_POINT('',#227);
#229=CARTESIAN_POINT('',(-10.591836734693878,-24.489798081918437,6.928203230275513));
#230=DIRECTION('',(-1.0,0.0,0.0));
#231=VECTOR('',#230,7.999999999999996);
#232=LINE('',#229,#231);
#233=EDGE_CURVE('',#197,#228,#232,.T.);
#234=ORIENTED_EDGE('',*,*,#233,.F.);
#235=ORIENTED_EDGE('',*,*,#217,.T.);
#236=CARTESIAN_POINT('',(-18.591836734693878,-16.489798081918433,6.928203230275509));
#237=VERTEX_POINT('',#236);
#238=CARTESIAN_POINT('',(-18.591836734693878,-16.489798081918433,6.92820323027551));
#239=DIRECTION('',(1.0,0.0,0.0));
#240=VECTOR('',#239,7.999999999999996);
#241=LINE('',#238,#240);
#242=EDGE_CURVE('',#237,#206,#241,.T.);
#243=ORIENTED_EDGE('',*,*,#242,.F.);
#244=CARTESIAN_POINT('',(-18.591836734693878,-24.489798081918437,6.928203230275508));
#245=DIRECTION('',(0.0,1.0,0.0));
#246=VECTOR('',#245,8.000000000000004);
#247=LINE('',#244,#246);
#248=EDGE_CURVE('',#228,#237,#247,.T.);
#249=ORIENTED_EDGE('',*,*,#248,.F.);
#250=EDGE_LOOP('',(#234,#235,#243,#249));
#251=FACE_OUTER_BOUND('',#250,.T.);
#252=ADVANCED_FACE('',(#251),#226,.T.);
#253=CARTESIAN_POINT('',(-22.591836734693878,-16.489798081918433,0.0));
#254=DIRECTION('',(-0.866025403784439,0.0,-0.5));
#255=DIRECTION('',(0.5,5.349157E-017,-0.866025403784439));
#256=AXIS2_PLACEMENT_3D('',#253,#254,#255);
#257=PLANE('',#256);
#258=CARTESIAN_POINT('',(-22.591836734693874,-24.489798081918437,0.0));
#259=VERTEX_POINT('',#258);
#260=CARTESIAN_POINT('',(-22.591836734693878,-24.489798081918437,-1.471046E-015));
#261=DIRECTION('',(0.5,0.0,-0.866025403784439));
#262=VECTOR('',#261,8.000000000000005);
#263=LINE('',#260,#262);
#264=EDGE_CURVE('',#259,#126,#263,.T.);
#265=ORIENTED_EDGE('',*,*,#264,.F.);
#266=CARTESIAN_POINT('',(-22.591836734693874,-16.489798081918433,0.0));
#267=VERTEX_POINT('',#266);
#268=CARTESIAN_POINT('',(-22.591836734693874,-16.489798081918433,-5.551115E-015));
#269=DIRECTION('',(0.0,-1.0,0.0));
#270=VECTOR('',#269,8.000000000000004);
#271=LINE('',#268,#270);
#272=EDGE_CURVE('',#267,#259,#271,.T.);
#273=ORIENTED_EDGE('',*,*,#272,.F.);
#274=CARTESIAN_POINT('',(-18.591836734693878,-16.489798081918433,-6.928203230275514));
#275=DIRECTION('',(-0.5,0.0,0.866025403784439));
#276=VECTOR('',#275,8.000000000000004);
#277=LINE('',#274,#276);
#278=EDGE_CURVE('',#136,#267,#277,.T.);
#279=ORIENTED_EDGE('',*,*,#278,.F.);
#280=ORIENTED_EDGE('',*,*,#141,.T.);
#281=EDGE_LOOP('',(#265,#273,#279,#280));
#282=FACE_OUTER_BOUND('',#281,.T.);
#283=ADVANCED_FACE('',(#282),#257,.T.);
#284=CARTESIAN_POINT('',(-18.591836734693878,-16.489798081918433,6.928203230275509));
#285=DIRECTION('',(-0.866025403784439,0.0,0.5));
#286=DIRECTION('',(-0.5,-5.349157E-017,-0.866025403784439));
#287=AXIS2_PLACEMENT_3D('',#284,#285,#286);
#288=PLANE('',#287);
#289=CARTESIAN_POINT('',(-18.591836734693878,-24.489798081918437,6.928203230275509));
#290=DIRECTION('',(-0.5,0.0,-0.866025403784439));
#291=VECTOR('',#290,7.999999999999999);
#292=LINE('',#289,#291);
#293=EDGE_CURVE('',#228,#259,#292,.T.);
#294=ORIENTED_EDGE('',*,*,#293,.F.);
#295=ORIENTED_EDGE('',*,*,#248,.T.);
#296=CARTESIAN_POINT('',(-22.591836734693874,-16.489798081918433,-8.881784E-016));
#297=DIRECTION('',(0.5,0.0,0.866025403784439));
#298=VECTOR('',#297,8.0);
#299=LINE('',#296,#298);
#300=EDGE_CURVE('',#267,#237,#299,.T.);
#301=ORIENTED_EDGE('',*,*,#300,.F.);
#302=ORIENTED_EDGE('',*,*,#272,.T.);
#303=EDGE_LOOP('',(#294,#295,#301,#302));
#304=FACE_OUTER_BOUND('',#303,.T.);
#305=ADVANCED_FACE('',(#304),#288,.T.);
#306=CARTESIAN_POINT('',(-14.591836734693882,36.239799142058473,0.0));
#307=DIRECTION('',(0.0,-1.0,0.0));
#308=DIRECTION('',(1.0,0.0,0.0));
#309=AXIS2_PLACEMENT_3D('',#306,#307,#308);
#310=CONICAL_SURFACE('',#309,5.749999999999997,44.999999999999936);
#311=CARTESIAN_POINT('',(-20.591836734693878,35.989799142058473,7.347881E-016));
#312=VERTEX_POINT('',#311);
#313=CARTESIAN_POINT('',(-14.591836734693882,35.989799142058473,0.0));
#314=DIRECTION('',(0.0,1.0,0.0));
#315=DIRECTION('',(1.0,0.0,0.0));
#316=AXIS2_PLACEMENT_3D('',#313,#314,#315);
#317=CIRCLE('',#316,5.999999999999998);
#318=EDGE_CURVE('',#312,#312,#317,.T.);
#319=ORIENTED_EDGE('',*,*,#318,.T.);
#320=EDGE_LOOP('',(#319));
#321=FACE_OUTER_BOUND('',#320,.T.);
#322=CARTESIAN_POINT('',(-20.091836734693878,36.489799142058473,-6.735557E-016));
#323=VERTEX_POINT('',#322);
#324=CARTESIAN_POINT('',(-14.591836734693882,36.489799142058473,0.0));
#325=DIRECTION('',(0.0,-1.0,0.0));
#326=DIRECTION('',(1.0,0.0,0.0));
#327=AXIS2_PLACEMENT_3D('',#324,#325,#326);
#328=CIRCLE('',#327,5.499999999999997);
#329=EDGE_CURVE('',#323,#323,#328,.T.);
#330=ORIENTED_EDGE('',*,*,#329,.T.);
#331=EDGE_LOOP('',(#330));
#332=FACE_BOUND('',#331,.T.);
#333=ADVANCED_FACE('',(#321,#332),#310,.T.);
#334=CARTESIAN_POINT('',(-17.591836734693878,36.489799142058473,0.0));
#335=DIRECTION('',(0.0,1.0,0.0));
#336=DIRECTION('',(0.0,0.0,1.0));
#337=AXIS2_PLACEMENT_3D('',#334,#335,#336);
#338=PLANE('',#337);
#339=ORIENTED_EDGE('',*,*,#329,.F.);
#340=EDGE_LOOP('',(#339));
#341=FACE_OUTER_BOUND('',#340,.T.);
#342=ADVANCED_FACE('',(#341),#338,.T.);
#343=CARTESIAN_POINT('',(-14.59183673469388,12.000000530070022,0.0));
#344=DIRECTION('',(-1.069831E-016,1.0,0.0));
#345=DIRECTION('',(-1.0,0.0,0.0));
#346=AXIS2_PLACEMENT_3D('',#343,#344,#345);
#347=CYLINDRICAL_SURFACE('',#346,5.999999999999998);
#348=CARTESIAN_POINT('',(-20.591836734693874,-12.48979808191843,0.0));
#349=VERTEX_POINT('',#348);
#350=CARTESIAN_POINT('',(-14.591836734693878,-12.48979808191843,0.0));
#351=DIRECTION('',(0.0,1.0,0.0));
#352=DIRECTION('',(-1.0,0.0,0.0));
#353=AXIS2_PLACEMENT_3D('',#350,#351,#352);
#354=CIRCLE('',#353,5.999999999999996);
#355=EDGE_CURVE('',#349,#349,#354,.T.);
#356=ORIENTED_EDGE('',*,*,#355,.T.);
#357=EDGE_LOOP('',(#356));
#358=FACE_OUTER_BOUND('',#357,.T.);
#359=ORIENTED_EDGE('',*,*,#318,.F.);
#360=EDGE_LOOP('',(#359));
#361=FACE_BOUND('',#360,.T.);
#362=ADVANCED_FACE('',(#358,#361),#347,.T.);
#363=CARTESIAN_POINT('',(-14.591836734693873,-31.489798081918433,0.0));
#364=DIRECTION('',(0.0,0.0,1.0));
#365=DIRECTION('',(1.0,0.0,0.0));
#366=AXIS2_PLACEMENT_3D('',#363,#364,#365);
#367=SPHERICAL_SURFACE('',#366,7.500000000000007);
#368=CARTESIAN_POINT('',(-20.591836734693878,-26.989798081918433,0.0));
#369=VERTEX_POINT('',#368);
#370=CARTESIAN_POINT('',(-14.591836734693874,-26.989798081918433,0.0));
#371=DIRECTION('',(0.0,1.0,0.0));
#372=DIRECTION('',(-1.0,0.0,0.0));
#373=AXIS2_PLACEMENT_3D('',#370,#371,#372);
#374=CIRCLE('',#373,6.000000000000004);
#375=EDGE_CURVE('',#369,#369,#374,.T.);
#376=ORIENTED_EDGE('',*,*,#375,.F.);
#377=EDGE_LOOP('',(#376));
#378=FACE_OUTER_BOUND('',#377,.T.);
#379=ADVANCED_FACE('',(#378),#367,.T.);
#380=CARTESIAN_POINT('',(-14.591836734693874,-25.739798081918433,0.0));
#381=DIRECTION('',(-1.069831E-016,1.0,0.0));
#382=DIRECTION('',(-1.0,0.0,0.0));
#383=AXIS2_PLACEMENT_3D('',#380,#381,#382);
#384=CYLINDRICAL_SURFACE('',#383,6.000000000000004);
#385=CARTESIAN_POINT('',(-20.591836734693874,-24.489798081918433,0.0));
#386=VERTEX_POINT('',#385);
#387=CARTESIAN_POINT('',(-14.591836734693874,-24.489798081918433,0.0));
#388=DIRECTION('',(0.0,1.0,0.0));
#389=DIRECTION('',(-1.0,0.0,0.0));
#390=AXIS2_PLACEMENT_3D('',#387,#388,#389);
#391=CIRCLE('',#390,5.999999999999998);
#392=EDGE_CURVE('',#386,#386,#391,.T.);
#393=ORIENTED_EDGE('',*,*,#392,.F.);
#394=EDGE_LOOP('',(#393));
#395=FACE_OUTER_BOUND('',#394,.T.);
#396=ORIENTED_EDGE('',*,*,#375,.T.);
#397=EDGE_LOOP('',(#396));
#398=FACE_BOUND('',#397,.T.);
#399=ADVANCED_FACE('',(#395,#398),#384,.T.);
#400=CARTESIAN_POINT('',(-21.591836734693874,-24.489798081918437,0.0));
#401=DIRECTION('',(0.0,-1.0,0.0));
#402=DIRECTION('',(0.0,0.0,-1.0));
#403=AXIS2_PLACEMENT_3D('',#400,#401,#402);
#404=PLANE('',#403);
#405=ORIENTED_EDGE('',*,*,#133,.T.);
#406=ORIENTED_EDGE('',*,*,#171,.T.);
#407=ORIENTED_EDGE('',*,*,#202,.T.);
#408=ORIENTED_EDGE('',*,*,#233,.T.);
#409=ORIENTED_EDGE('',*,*,#293,.T.);
#410=ORIENTED_EDGE('',*,*,#264,.T.);
#411=EDGE_LOOP('',(#405,#406,#407,#408,#409,#410));
#412=FACE_OUTER_BOUND('',#411,.T.);
#413=ORIENTED_EDGE('',*,*,#392,.T.);
#414=EDGE_LOOP('',(#413));
#415=FACE_BOUND('',#414,.T.);
#416=ADVANCED_FACE('',(#412,#415),#404,.T.);
#417=CARTESIAN_POINT('',(-21.091836734693878,-16.489798081918433,0.0));
#418=DIRECTION('',(0.0,1.0,0.0));
#419=DIRECTION('',(0.0,0.0,1.0));
#420=AXIS2_PLACEMENT_3D('',#417,#418,#419);
#421=PLANE('',#420);
#422=ORIENTED_EDGE('',*,*,#300,.T.);
#423=ORIENTED_EDGE('',*,*,#242,.T.);
#424=ORIENTED_EDGE('',*,*,#211,.T.);
#425=ORIENTED_EDGE('',*,*,#180,.T.);
#426=ORIENTED_EDGE('',*,*,#149,.T.);
#427=ORIENTED_EDGE('',*,*,#278,.T.);
#428=EDGE_LOOP('',(#422,#423,#424,#425,#426,#427));
#429=FACE_OUTER_BOUND('',#428,.T.);
#430=ORIENTED_EDGE('',*,*,#115,.F.);
#431=EDGE_LOOP('',(#430));
#432=FACE_BOUND('',#431,.T.);
#433=ADVANCED_FACE('',(#429,#432),#421,.T.);
#434=CARTESIAN_POINT('',(-14.591836734693878,-14.489798081918433,0.0));
#435=DIRECTION('',(-1.069831E-016,1.0,0.0));
#436=DIRECTION('',(-1.0,0.0,0.0));
#437=AXIS2_PLACEMENT_3D('',#434,#435,#436);
#438=CYLINDRICAL_SURFACE('',#437,4.999999999999998);
#439=CARTESIAN_POINT('',(-19.591836734693874,-12.48979808191843,0.0));
#440=VERTEX_POINT('',#439);
#441=CARTESIAN_POINT('',(-14.591836734693878,-12.48979808191843,0.0));
#442=DIRECTION('',(0.0,1.0,0.0));
#443=DIRECTION('',(-1.0,0.0,0.0));
#444=AXIS2_PLACEMENT_3D('',#441,#442,#443);
#445=CIRCLE('',#444,4.999999999999998);
#446=EDGE_CURVE('',#440,#440,#445,.T.);
#447=ORIENTED_EDGE('',*,*,#446,.F.);
#448=EDGE_LOOP('',(#447));
#449=FACE_OUTER_BOUND('',#448,.T.);
#450=ORIENTED_EDGE('',*,*,#97,.T.);
#451=EDGE_LOOP('',(#450));
#452=FACE_BOUND('',#451,.T.);
#453=ADVANCED_FACE('',(#449,#452),#438,.T.);
#454=CARTESIAN_POINT('',(-20.091836734693874,-12.48979808191843,0.0));
#455=DIRECTION('',(0.0,-1.0,0.0));
#456=DIRECTION('',(0.0,0.0,-1.0));
#457=AXIS2_PLACEMENT_3D('',#454,#455,#456);
#458=PLANE('',#457);
#459=ORIENTED_EDGE('',*,*,#355,.F.);
#460=EDGE_LOOP('',(#459));
#461=FACE_OUTER_BOUND('',#460,.T.);
#462=ORIENTED_EDGE('',*,*,#446,.T.);
#463=EDGE_LOOP('',(#462));
#464=FACE_BOUND('',#463,.T.);
#465=ADVANCED_FACE('',(#461,#464),#458,.T.);
#466=CLOSED_SHELL('',(#84,#101,#119,#159,#190,#221,#252,#283,#305,#333,#342,#362,#379,#399,#416,#433,#453,#465));
#467=MANIFOLD_SOLID_BREP('Bry\X2\0142\X0\a1',#466);
#468=COLOUR_RGB('Domy\X2\FFFD\X0\lna',0.75,0.75,0.75);
#469=FILL_AREA_STYLE_COLOUR('Domy\X2\FFFD\X0\lna',#468);
#470=FILL_AREA_STYLE('Domy\X2\FFFD\X0\lna',(#469));
#471=SURFACE_STYLE_FILL_AREA(#470);
#472=SURFACE_SIDE_STYLE('Domy\X2\FFFD\X0\lna',(#471));
#473=SURFACE_STYLE_USAGE(.BOTH.,#472);
#474=PRESENTATION_STYLE_ASSIGNMENT((#473));
#475=STYLED_ITEM('',(#474),#467);
#476=MECHANICAL_DESIGN_GEOMETRIC_PRESENTATION_REPRESENTATION('',(#475),#36);
#477=ADVANCED_BREP_SHAPE_REPRESENTATION('ABSR',(#467),#36);
#478=SHAPE_REPRESENTATION_RELATIONSHIP('SRR','None',#477,#41);
ENDSEC;
END-ISO-10303-21;
