ISO-10303-21;
HEADER;
/****************************************************************
 * Generated by software with PDElib inside                    *
 * PDElib Version v51a, created Wed 11/30/2011                  *
 * ITI Transcendata (http://www.transcendata.com/)              *
 ****************************************************************/
FILE_DESCRIPTION((''),'2;1');
FILE_NAME('\\\\WIN\\Rysunki\\Inventor\\@System profili aluminiowych\\System modeli aluminiowych STEP ARMA\\AR3034.stp','2016-12-19T12:54:47',('Envy'),(''),'Autodesk Inventor 2013','Autodesk Inventor 2013','');
FILE_SCHEMA(('AUTOMOTIVE_DESIGN { 1 0 10303 214 1 1 1 1 }'));
ENDSEC;
DATA;
#5=APPLICATION_CONTEXT('automotive design');
#6=APPLICATION_PROTOCOL_DEFINITION('International Standard','automotive_design',2001,#5);
#7=PRODUCT_CONTEXT('',#5,'mechanical');
#8=PRODUCT('AR3034 alu [8]','AR3034 alu [8]',$,(#7));
#9=PRODUCT_RELATED_PRODUCT_CATEGORY('part',$,(#8));
#10=PRODUCT_DEFINITION_FORMATION('',$,#8);
#11=PRODUCT_DEFINITION_CONTEXT('part definition',#5,'design');
#12=PRODUCT_DEFINITION('',$,#10,#11);
#18=(NAMED_UNIT(*)PLANE_ANGLE_UNIT()SI_UNIT($,.RADIAN.));
#19=DIMENSIONAL_EXPONENTS(0.0,0.0,0.0,0.0,0.0,0.0,0.0);
#20=PLANE_ANGLE_MEASURE_WITH_UNIT(PLANE_ANGLE_MEASURE(0.0174532925),#18);
#24=(CONVERSION_BASED_UNIT('DEGREE',#20)NAMED_UNIT(#19)PLANE_ANGLE_UNIT());
#28=(NAMED_UNIT(*)SI_UNIT($,.STERADIAN.)SOLID_ANGLE_UNIT());
#32=(LENGTH_UNIT()NAMED_UNIT(*)SI_UNIT(.MILLI.,.METRE.));
#34=UNCERTAINTY_MEASURE_WITH_UNIT(LENGTH_MEASURE(0.01),#32,'DISTANCE_ACCURACY_VALUE','');
#36=(GEOMETRIC_REPRESENTATION_CONTEXT(3)GLOBAL_UNCERTAINTY_ASSIGNED_CONTEXT((#34))GLOBAL_UNIT_ASSIGNED_CONTEXT((#24,#28,#32))REPRESENTATION_CONTEXT('None','None'));
#37=AXIS2_PLACEMENT_3D('',#38,#39,#40);
#38=CARTESIAN_POINT('',(0.0,0.0,0.0));
#39=DIRECTION('',(0.0,0.0,1.0));
#40=DIRECTION('',(1.0,0.0,0.0));
#41=SHAPE_REPRESENTATION('',(#37),#36);
#42=PRODUCT_DEFINITION_SHAPE('','',#12);
#43=SHAPE_DEFINITION_REPRESENTATION(#42,#41);
#49=(NAMED_UNIT(*)PLANE_ANGLE_UNIT()SI_UNIT($,.RADIAN.));
#50=DIMENSIONAL_EXPONENTS(0.0,0.0,0.0,0.0,0.0,0.0,0.0);
#51=PLANE_ANGLE_MEASURE_WITH_UNIT(PLANE_ANGLE_MEASURE(0.0174532925),#49);
#55=(CONVERSION_BASED_UNIT('DEGREE',#51)NAMED_UNIT(#50)PLANE_ANGLE_UNIT());
#59=(NAMED_UNIT(*)SI_UNIT($,.STERADIAN.)SOLID_ANGLE_UNIT());
#63=(LENGTH_UNIT()NAMED_UNIT(*)SI_UNIT(.MILLI.,.METRE.));
#65=UNCERTAINTY_MEASURE_WITH_UNIT(LENGTH_MEASURE(0.000001),#63,'DISTANCE_ACCURACY_VALUE','');
#67=(GEOMETRIC_REPRESENTATION_CONTEXT(3)GLOBAL_UNCERTAINTY_ASSIGNED_CONTEXT((#65))GLOBAL_UNIT_ASSIGNED_CONTEXT((#55,#59,#63))REPRESENTATION_CONTEXT('','3D'));
#68=CARTESIAN_POINT('',(7.940000000000001,-1.009999999999997,0.0));
#69=DIRECTION('',(0.0,0.0,1.0));
#70=DIRECTION('',(0.707106781186587,0.707106781186508,0.0));
#71=AXIS2_PLACEMENT_3D('',#68,#69,#70);
#72=CYLINDRICAL_SURFACE('',#71,0.01);
#73=CARTESIAN_POINT('',(7.940000000000001,-0.999999999999997,0.0));
#74=VERTEX_POINT('',#73);
#75=CARTESIAN_POINT('',(7.950000000000001,-1.009999999999997,0.0));
#76=VERTEX_POINT('',#75);
#77=CARTESIAN_POINT('',(7.940000000000001,-1.009999999999997,0.0));
#78=DIRECTION('',(0.0,0.0,-1.0));
#79=DIRECTION('',(0.707106781186587,0.707106781186508,0.0));
#80=AXIS2_PLACEMENT_3D('',#77,#78,#79);
#81=CIRCLE('',#80,0.01);
#82=EDGE_CURVE('',#74,#76,#81,.T.);
#83=ORIENTED_EDGE('',*,*,#82,.T.);
#84=CARTESIAN_POINT('',(7.950000000000001,-1.009999999999997,3000.0));
#85=VERTEX_POINT('',#84);
#86=CARTESIAN_POINT('',(7.950000000000001,-1.009999999999997,0.0));
#87=DIRECTION('',(0.0,0.0,1.0));
#88=VECTOR('',#87,3000.0);
#89=LINE('',#86,#88);
#90=EDGE_CURVE('',#76,#85,#89,.T.);
#91=ORIENTED_EDGE('',*,*,#90,.T.);
#92=CARTESIAN_POINT('',(7.940000000000001,-0.999999999999997,3000.0));
#93=VERTEX_POINT('',#92);
#94=CARTESIAN_POINT('',(7.940000000000001,-1.009999999999997,3000.0));
#95=DIRECTION('',(0.0,0.0,1.0));
#96=DIRECTION('',(0.707106781186587,0.707106781186508,0.0));
#97=AXIS2_PLACEMENT_3D('',#94,#95,#96);
#98=CIRCLE('',#97,0.01);
#99=EDGE_CURVE('',#85,#93,#98,.T.);
#100=ORIENTED_EDGE('',*,*,#99,.T.);
#101=CARTESIAN_POINT('',(7.940000000000001,-0.999999999999997,3000.0));
#102=DIRECTION('',(0.0,0.0,-1.0));
#103=VECTOR('',#102,3000.0);
#104=LINE('',#101,#103);
#105=EDGE_CURVE('',#93,#74,#104,.T.);
#106=ORIENTED_EDGE('',*,*,#105,.T.);
#107=EDGE_LOOP('',(#83,#91,#100,#106));
#108=FACE_OUTER_BOUND('',#107,.T.);
#109=ADVANCED_FACE('',(#108),#72,.F.);
#110=CARTESIAN_POINT('',(7.950000000000001,-0.999999999999997,0.0));
#111=DIRECTION('',(-1.0,0.0,0.0));
#112=DIRECTION('',(0.0,-1.0,0.0));
#113=AXIS2_PLACEMENT_3D('',#110,#111,#112);
#114=PLANE('',#113);
#115=ORIENTED_EDGE('',*,*,#90,.F.);
#116=CARTESIAN_POINT('',(7.950000000000003,-3.55,0.0));
#117=VERTEX_POINT('',#116);
#118=CARTESIAN_POINT('',(7.950000000000001,-1.009999999999997,0.0));
#119=DIRECTION('',(0.0,-1.0,0.0));
#120=VECTOR('',#119,2.540000000000003);
#121=LINE('',#118,#120);
#122=EDGE_CURVE('',#76,#117,#121,.T.);
#123=ORIENTED_EDGE('',*,*,#122,.T.);
#124=CARTESIAN_POINT('',(7.950000000000003,-3.55,3000.0));
#125=VERTEX_POINT('',#124);
#126=CARTESIAN_POINT('',(7.950000000000003,-3.55,3000.0));
#127=DIRECTION('',(0.0,0.0,-1.0));
#128=VECTOR('',#127,3000.0);
#129=LINE('',#126,#128);
#130=EDGE_CURVE('',#125,#117,#129,.T.);
#131=ORIENTED_EDGE('',*,*,#130,.F.);
#132=CARTESIAN_POINT('',(7.950000000000001,-1.009999999999997,3000.0));
#133=DIRECTION('',(0.0,-1.0,0.0));
#134=VECTOR('',#133,2.540000000000003);
#135=LINE('',#132,#134);
#136=EDGE_CURVE('',#85,#125,#135,.T.);
#137=ORIENTED_EDGE('',*,*,#136,.F.);
#138=EDGE_LOOP('',(#115,#123,#131,#137));
#139=FACE_OUTER_BOUND('',#138,.T.);
#140=ADVANCED_FACE('',(#139),#114,.T.);
#141=CARTESIAN_POINT('',(1.860000000000002,-1.010000000000001,0.0));
#142=DIRECTION('',(0.0,0.0,1.0));
#143=DIRECTION('',(-0.707106781186548,0.707106781186548,0.0));
#144=AXIS2_PLACEMENT_3D('',#141,#142,#143);
#145=CYLINDRICAL_SURFACE('',#144,0.01);
#146=CARTESIAN_POINT('',(1.850000000000002,-1.010000000000001,0.0));
#147=VERTEX_POINT('',#146);
#148=CARTESIAN_POINT('',(1.860000000000002,-1.000000000000001,0.0));
#149=VERTEX_POINT('',#148);
#150=CARTESIAN_POINT('',(1.860000000000002,-1.010000000000001,0.0));
#151=DIRECTION('',(0.0,0.0,-1.0));
#152=DIRECTION('',(-0.707106781186548,0.707106781186548,0.0));
#153=AXIS2_PLACEMENT_3D('',#150,#151,#152);
#154=CIRCLE('',#153,0.01);
#155=EDGE_CURVE('',#147,#149,#154,.T.);
#156=ORIENTED_EDGE('',*,*,#155,.T.);
#157=CARTESIAN_POINT('',(1.860000000000002,-1.000000000000001,3000.0));
#158=VERTEX_POINT('',#157);
#159=CARTESIAN_POINT('',(1.860000000000002,-1.000000000000001,0.0));
#160=DIRECTION('',(0.0,0.0,1.0));
#161=VECTOR('',#160,3000.0);
#162=LINE('',#159,#161);
#163=EDGE_CURVE('',#149,#158,#162,.T.);
#164=ORIENTED_EDGE('',*,*,#163,.T.);
#165=CARTESIAN_POINT('',(1.850000000000002,-1.010000000000001,3000.0));
#166=VERTEX_POINT('',#165);
#167=CARTESIAN_POINT('',(1.860000000000002,-1.010000000000001,3000.0));
#168=DIRECTION('',(0.0,0.0,1.0));
#169=DIRECTION('',(-0.707106781186548,0.707106781186548,0.0));
#170=AXIS2_PLACEMENT_3D('',#167,#168,#169);
#171=CIRCLE('',#170,0.01);
#172=EDGE_CURVE('',#158,#166,#171,.T.);
#173=ORIENTED_EDGE('',*,*,#172,.T.);
#174=CARTESIAN_POINT('',(1.850000000000002,-1.010000000000001,3000.0));
#175=DIRECTION('',(0.0,0.0,-1.0));
#176=VECTOR('',#175,3000.0);
#177=LINE('',#174,#176);
#178=EDGE_CURVE('',#166,#147,#177,.T.);
#179=ORIENTED_EDGE('',*,*,#178,.T.);
#180=EDGE_LOOP('',(#156,#164,#173,#179));
#181=FACE_OUTER_BOUND('',#180,.T.);
#182=ADVANCED_FACE('',(#181),#145,.F.);
#183=CARTESIAN_POINT('',(1.850000000000002,-1.000000000000001,0.0));
#184=DIRECTION('',(0.0,-1.0,0.0));
#185=DIRECTION('',(1.0,0.0,0.0));
#186=AXIS2_PLACEMENT_3D('',#183,#184,#185);
#187=PLANE('',#186);
#188=ORIENTED_EDGE('',*,*,#105,.F.);
#189=CARTESIAN_POINT('',(1.860000000000002,-1.000000000000001,3000.0));
#190=DIRECTION('',(1.0,0.0,0.0));
#191=VECTOR('',#190,6.08);
#192=LINE('',#189,#191);
#193=EDGE_CURVE('',#158,#93,#192,.T.);
#194=ORIENTED_EDGE('',*,*,#193,.F.);
#195=ORIENTED_EDGE('',*,*,#163,.F.);
#196=CARTESIAN_POINT('',(1.860000000000002,-1.000000000000001,0.0));
#197=DIRECTION('',(1.0,0.0,0.0));
#198=VECTOR('',#197,6.08);
#199=LINE('',#196,#198);
#200=EDGE_CURVE('',#149,#74,#199,.T.);
#201=ORIENTED_EDGE('',*,*,#200,.T.);
#202=EDGE_LOOP('',(#188,#194,#195,#201));
#203=FACE_OUTER_BOUND('',#202,.T.);
#204=ADVANCED_FACE('',(#203),#187,.T.);
#205=CARTESIAN_POINT('',(0.050000000000003,-1.37279220613579,0.0));
#206=DIRECTION('',(0.0,0.0,1.0));
#207=DIRECTION('',(0.923879532511287,0.38268343236509,0.0));
#208=AXIS2_PLACEMENT_3D('',#205,#206,#207);
#209=CYLINDRICAL_SURFACE('',#208,0.9);
#210=CARTESIAN_POINT('',(0.686396103067896,-0.736396103067897,0.0));
#211=VERTEX_POINT('',#210);
#212=CARTESIAN_POINT('',(0.950000000000003,-1.37279220613579,0.0));
#213=VERTEX_POINT('',#212);
#214=CARTESIAN_POINT('',(0.050000000000003,-1.37279220613579,0.0));
#215=DIRECTION('',(0.0,0.0,-1.0));
#216=DIRECTION('',(0.923879532511287,0.38268343236509,0.0));
#217=AXIS2_PLACEMENT_3D('',#214,#215,#216);
#218=CIRCLE('',#217,0.9);
#219=EDGE_CURVE('',#211,#213,#218,.T.);
#220=ORIENTED_EDGE('',*,*,#219,.T.);
#221=CARTESIAN_POINT('',(0.950000000000003,-1.37279220613579,3000.0));
#222=VERTEX_POINT('',#221);
#223=CARTESIAN_POINT('',(0.950000000000003,-1.37279220613579,0.0));
#224=DIRECTION('',(0.0,0.0,1.0));
#225=VECTOR('',#224,3000.0);
#226=LINE('',#223,#225);
#227=EDGE_CURVE('',#213,#222,#226,.T.);
#228=ORIENTED_EDGE('',*,*,#227,.T.);
#229=CARTESIAN_POINT('',(0.686396103067896,-0.736396103067897,3000.0));
#230=VERTEX_POINT('',#229);
#231=CARTESIAN_POINT('',(0.050000000000003,-1.37279220613579,3000.0));
#232=DIRECTION('',(0.0,0.0,1.0));
#233=DIRECTION('',(0.923879532511287,0.38268343236509,0.0));
#234=AXIS2_PLACEMENT_3D('',#231,#232,#233);
#235=CIRCLE('',#234,0.9);
#236=EDGE_CURVE('',#222,#230,#235,.T.);
#237=ORIENTED_EDGE('',*,*,#236,.T.);
#238=CARTESIAN_POINT('',(0.686396103067896,-0.736396103067897,3000.0));
#239=DIRECTION('',(0.0,0.0,-1.0));
#240=VECTOR('',#239,3000.0);
#241=LINE('',#238,#240);
#242=EDGE_CURVE('',#230,#211,#241,.T.);
#243=ORIENTED_EDGE('',*,*,#242,.T.);
#244=EDGE_LOOP('',(#220,#228,#237,#243));
#245=FACE_OUTER_BOUND('',#244,.T.);
#246=ADVANCED_FACE('',(#245),#209,.F.);
#247=CARTESIAN_POINT('',(0.950000000000003,-1.000000000000001,0.0));
#248=DIRECTION('',(-1.0,0.0,0.0));
#249=DIRECTION('',(0.0,-1.0,0.0));
#250=AXIS2_PLACEMENT_3D('',#247,#248,#249);
#251=PLANE('',#250);
#252=ORIENTED_EDGE('',*,*,#227,.F.);
#253=CARTESIAN_POINT('',(0.950000000000003,-3.55,0.0));
#254=VERTEX_POINT('',#253);
#255=CARTESIAN_POINT('',(0.950000000000003,-1.37279220613579,0.0));
#256=DIRECTION('',(0.0,-1.0,0.0));
#257=VECTOR('',#256,2.177207793864211);
#258=LINE('',#255,#257);
#259=EDGE_CURVE('',#213,#254,#258,.T.);
#260=ORIENTED_EDGE('',*,*,#259,.T.);
#261=CARTESIAN_POINT('',(0.950000000000003,-3.55,3000.0));
#262=VERTEX_POINT('',#261);
#263=CARTESIAN_POINT('',(0.950000000000003,-3.55,3000.0));
#264=DIRECTION('',(0.0,0.0,-1.0));
#265=VECTOR('',#264,3000.0);
#266=LINE('',#263,#265);
#267=EDGE_CURVE('',#262,#254,#266,.T.);
#268=ORIENTED_EDGE('',*,*,#267,.F.);
#269=CARTESIAN_POINT('',(0.950000000000003,-1.37279220613579,3000.0));
#270=DIRECTION('',(0.0,-1.0,0.0));
#271=VECTOR('',#270,2.177207793864211);
#272=LINE('',#269,#271);
#273=EDGE_CURVE('',#222,#262,#272,.T.);
#274=ORIENTED_EDGE('',*,*,#273,.F.);
#275=EDGE_LOOP('',(#252,#260,#268,#274));
#276=FACE_OUTER_BOUND('',#275,.T.);
#277=ADVANCED_FACE('',(#276),#251,.T.);
#278=CARTESIAN_POINT('',(9.75,-1.372792206135787,0.0));
#279=DIRECTION('',(0.0,0.0,1.0));
#280=DIRECTION('',(-0.923879532511287,0.38268343236509,0.0));
#281=AXIS2_PLACEMENT_3D('',#278,#279,#280);
#282=CYLINDRICAL_SURFACE('',#281,0.9);
#283=CARTESIAN_POINT('',(8.850000000000001,-1.372792206135787,0.0));
#284=VERTEX_POINT('',#283);
#285=CARTESIAN_POINT('',(9.113603896932109,-0.736396103067894,0.0));
#286=VERTEX_POINT('',#285);
#287=CARTESIAN_POINT('',(9.75,-1.372792206135787,0.0));
#288=DIRECTION('',(0.0,0.0,-1.0));
#289=DIRECTION('',(-0.923879532511287,0.38268343236509,0.0));
#290=AXIS2_PLACEMENT_3D('',#287,#288,#289);
#291=CIRCLE('',#290,0.9);
#292=EDGE_CURVE('',#284,#286,#291,.T.);
#293=ORIENTED_EDGE('',*,*,#292,.T.);
#294=CARTESIAN_POINT('',(9.113603896932109,-0.736396103067894,3000.0));
#295=VERTEX_POINT('',#294);
#296=CARTESIAN_POINT('',(9.113603896932109,-0.736396103067894,0.0));
#297=DIRECTION('',(0.0,0.0,1.0));
#298=VECTOR('',#297,3000.0);
#299=LINE('',#296,#298);
#300=EDGE_CURVE('',#286,#295,#299,.T.);
#301=ORIENTED_EDGE('',*,*,#300,.T.);
#302=CARTESIAN_POINT('',(8.850000000000001,-1.372792206135787,3000.0));
#303=VERTEX_POINT('',#302);
#304=CARTESIAN_POINT('',(9.75,-1.372792206135787,3000.0));
#305=DIRECTION('',(0.0,0.0,1.0));
#306=DIRECTION('',(-0.923879532511287,0.38268343236509,0.0));
#307=AXIS2_PLACEMENT_3D('',#304,#305,#306);
#308=CIRCLE('',#307,0.9);
#309=EDGE_CURVE('',#295,#303,#308,.T.);
#310=ORIENTED_EDGE('',*,*,#309,.T.);
#311=CARTESIAN_POINT('',(8.850000000000001,-1.372792206135787,3000.0));
#312=DIRECTION('',(0.0,0.0,-1.0));
#313=VECTOR('',#312,3000.0);
#314=LINE('',#311,#313);
#315=EDGE_CURVE('',#303,#284,#314,.T.);
#316=ORIENTED_EDGE('',*,*,#315,.T.);
#317=EDGE_LOOP('',(#293,#301,#310,#316));
#318=FACE_OUTER_BOUND('',#317,.T.);
#319=ADVANCED_FACE('',(#318),#282,.F.);
#320=CARTESIAN_POINT('',(9.325000000000001,-0.525,0.0));
#321=DIRECTION('',(0.707106781186548,-0.707106781186547,0.0));
#322=DIRECTION('',(0.0,0.0,-1.0));
#323=AXIS2_PLACEMENT_3D('',#320,#321,#322);
#324=PLANE('',#323);
#325=ORIENTED_EDGE('',*,*,#300,.F.);
#326=CARTESIAN_POINT('',(9.800000000000001,-0.05,0.0));
#327=VERTEX_POINT('',#326);
#328=CARTESIAN_POINT('',(9.113603896932109,-0.736396103067894,0.0));
#329=DIRECTION('',(0.707106781186547,0.707106781186547,0.0));
#330=VECTOR('',#329,0.970710678118657);
#331=LINE('',#328,#330);
#332=EDGE_CURVE('',#286,#327,#331,.T.);
#333=ORIENTED_EDGE('',*,*,#332,.T.);
#334=CARTESIAN_POINT('',(9.800000000000001,-0.05,3000.0));
#335=VERTEX_POINT('',#334);
#336=CARTESIAN_POINT('',(9.800000000000001,-0.05,0.0));
#337=DIRECTION('',(0.0,0.0,1.0));
#338=VECTOR('',#337,3000.0);
#339=LINE('',#336,#338);
#340=EDGE_CURVE('',#327,#335,#339,.T.);
#341=ORIENTED_EDGE('',*,*,#340,.T.);
#342=CARTESIAN_POINT('',(9.800000000000003,-0.05,3000.0));
#343=DIRECTION('',(-0.707106781186547,-0.707106781186547,0.0));
#344=VECTOR('',#343,0.970710678118657);
#345=LINE('',#342,#344);
#346=EDGE_CURVE('',#335,#295,#345,.T.);
#347=ORIENTED_EDGE('',*,*,#346,.T.);
#348=EDGE_LOOP('',(#325,#333,#341,#347));
#349=FACE_OUTER_BOUND('',#348,.T.);
#350=ADVANCED_FACE('',(#349),#324,.T.);
#351=CARTESIAN_POINT('',(9.800000000000001,-1.0,0.0));
#352=DIRECTION('',(1.0,0.0,0.0));
#353=DIRECTION('',(0.0,1.0,0.0));
#354=AXIS2_PLACEMENT_3D('',#351,#352,#353);
#355=PLANE('',#354);
#356=ORIENTED_EDGE('',*,*,#340,.F.);
#357=CARTESIAN_POINT('',(9.800000000000001,0.0,0.0));
#358=VERTEX_POINT('',#357);
#359=CARTESIAN_POINT('',(9.800000000000001,-0.05,0.0));
#360=DIRECTION('',(0.0,1.0,0.0));
#361=VECTOR('',#360,0.05);
#362=LINE('',#359,#361);
#363=EDGE_CURVE('',#327,#358,#362,.T.);
#364=ORIENTED_EDGE('',*,*,#363,.T.);
#365=CARTESIAN_POINT('',(9.800000000000001,0.0,3000.0));
#366=VERTEX_POINT('',#365);
#367=CARTESIAN_POINT('',(9.800000000000001,0.0,0.0));
#368=DIRECTION('',(0.0,0.0,1.0));
#369=VECTOR('',#368,3000.0);
#370=LINE('',#367,#369);
#371=EDGE_CURVE('',#358,#366,#370,.T.);
#372=ORIENTED_EDGE('',*,*,#371,.T.);
#373=CARTESIAN_POINT('',(9.800000000000001,-0.05,3000.0));
#374=DIRECTION('',(0.0,1.0,0.0));
#375=VECTOR('',#374,0.05);
#376=LINE('',#373,#375);
#377=EDGE_CURVE('',#335,#366,#376,.T.);
#378=ORIENTED_EDGE('',*,*,#377,.F.);
#379=EDGE_LOOP('',(#356,#364,#372,#378));
#380=FACE_OUTER_BOUND('',#379,.T.);
#381=ADVANCED_FACE('',(#380),#355,.T.);
#382=CARTESIAN_POINT('',(4.900000000000001,-1.375,0.0));
#383=DIRECTION('',(0.0,0.0,1.0));
#384=DIRECTION('',(1.0,0.0,0.0));
#385=AXIS2_PLACEMENT_3D('',#382,#383,#384);
#386=PLANE('',#385);
#387=CARTESIAN_POINT('',(8.850000000000001,-3.55,0.0));
#388=VERTEX_POINT('',#387);
#389=CARTESIAN_POINT('',(8.850000000000001,-3.55,0.0));
#390=DIRECTION('',(0.0,1.0,0.0));
#391=VECTOR('',#390,2.177207793864213);
#392=LINE('',#389,#391);
#393=EDGE_CURVE('',#388,#284,#392,.T.);
#394=ORIENTED_EDGE('',*,*,#393,.F.);
#395=CARTESIAN_POINT('',(8.400000000000002,-3.55,0.0));
#396=DIRECTION('',(0.0,0.0,1.0));
#397=DIRECTION('',(0.707106781186549,-0.707106781186546,0.0));
#398=AXIS2_PLACEMENT_3D('',#395,#396,#397);
#399=CIRCLE('',#398,0.45);
#400=EDGE_CURVE('',#117,#388,#399,.T.);
#401=ORIENTED_EDGE('',*,*,#400,.F.);
#402=ORIENTED_EDGE('',*,*,#122,.F.);
#403=ORIENTED_EDGE('',*,*,#82,.F.);
#404=ORIENTED_EDGE('',*,*,#200,.F.);
#405=ORIENTED_EDGE('',*,*,#155,.F.);
#406=CARTESIAN_POINT('',(1.850000000000003,-3.550000000000001,0.0));
#407=VERTEX_POINT('',#406);
#408=CARTESIAN_POINT('',(1.850000000000003,-3.550000000000001,0.0));
#409=DIRECTION('',(0.0,1.0,0.0));
#410=VECTOR('',#409,2.54);
#411=LINE('',#408,#410);
#412=EDGE_CURVE('',#407,#147,#411,.T.);
#413=ORIENTED_EDGE('',*,*,#412,.F.);
#414=CARTESIAN_POINT('',(1.400000000000003,-3.550000000000001,0.0));
#415=DIRECTION('',(0.0,0.0,1.0));
#416=DIRECTION('',(0.707106781186548,-0.707106781186547,0.0));
#417=AXIS2_PLACEMENT_3D('',#414,#415,#416);
#418=CIRCLE('',#417,0.45);
#419=EDGE_CURVE('',#254,#407,#418,.T.);
#420=ORIENTED_EDGE('',*,*,#419,.F.);
#421=ORIENTED_EDGE('',*,*,#259,.F.);
#422=ORIENTED_EDGE('',*,*,#219,.F.);
#423=CARTESIAN_POINT('',(1.745942E-034,-0.050000000000001,0.0));
#424=VERTEX_POINT('',#423);
#425=CARTESIAN_POINT('',(2.220446E-016,-0.050000000000001,0.0));
#426=DIRECTION('',(0.707106781186548,-0.707106781186548,0.0));
#427=VECTOR('',#426,0.970710678118659);
#428=LINE('',#425,#427);
#429=EDGE_CURVE('',#424,#211,#428,.T.);
#430=ORIENTED_EDGE('',*,*,#429,.F.);
#431=CARTESIAN_POINT('',(0.0,0.0,0.0));
#432=VERTEX_POINT('',#431);
#433=CARTESIAN_POINT('',(0.0,0.0,0.0));
#434=DIRECTION('',(0.0,-1.0,0.0));
#435=VECTOR('',#434,0.050000000000001);
#436=LINE('',#433,#435);
#437=EDGE_CURVE('',#432,#424,#436,.T.);
#438=ORIENTED_EDGE('',*,*,#437,.F.);
#439=CARTESIAN_POINT('',(9.800000000000001,0.0,0.0));
#440=DIRECTION('',(-1.0,0.0,0.0));
#441=VECTOR('',#440,9.800000000000001);
#442=LINE('',#439,#441);
#443=EDGE_CURVE('',#358,#432,#442,.T.);
#444=ORIENTED_EDGE('',*,*,#443,.F.);
#445=ORIENTED_EDGE('',*,*,#363,.F.);
#446=ORIENTED_EDGE('',*,*,#332,.F.);
#447=ORIENTED_EDGE('',*,*,#292,.F.);
#448=EDGE_LOOP('',(#394,#401,#402,#403,#404,#405,#413,#420,#421,#422,#430,#438,#444,#445,#446,#447));
#449=FACE_OUTER_BOUND('',#448,.T.);
#450=ADVANCED_FACE('',(#449),#386,.F.);
#451=CARTESIAN_POINT('',(0.475,-0.525000000000001,0.0));
#452=DIRECTION('',(-0.707106781186548,-0.707106781186548,0.0));
#453=DIRECTION('',(0.0,0.0,1.0));
#454=AXIS2_PLACEMENT_3D('',#451,#452,#453);
#455=PLANE('',#454);
#456=ORIENTED_EDGE('',*,*,#242,.F.);
#457=CARTESIAN_POINT('',(1.745942E-034,-0.050000000000001,3000.0));
#458=VERTEX_POINT('',#457);
#459=CARTESIAN_POINT('',(0.686396103067896,-0.736396103067897,3000.0));
#460=DIRECTION('',(-0.707106781186548,0.707106781186548,0.0));
#461=VECTOR('',#460,0.970710678118659);
#462=LINE('',#459,#461);
#463=EDGE_CURVE('',#230,#458,#462,.T.);
#464=ORIENTED_EDGE('',*,*,#463,.T.);
#465=CARTESIAN_POINT('',(0.0,-0.050000000000001,3000.0));
#466=DIRECTION('',(0.0,0.0,-1.0));
#467=VECTOR('',#466,3000.0);
#468=LINE('',#465,#467);
#469=EDGE_CURVE('',#458,#424,#468,.T.);
#470=ORIENTED_EDGE('',*,*,#469,.T.);
#471=ORIENTED_EDGE('',*,*,#429,.T.);
#472=EDGE_LOOP('',(#456,#464,#470,#471));
#473=FACE_OUTER_BOUND('',#472,.T.);
#474=ADVANCED_FACE('',(#473),#455,.T.);
#475=CARTESIAN_POINT('',(1.400000000000003,-3.550000000000001,0.0));
#476=DIRECTION('',(0.0,0.0,1.0));
#477=DIRECTION('',(0.707106781186548,-0.707106781186547,0.0));
#478=AXIS2_PLACEMENT_3D('',#475,#476,#477);
#479=CYLINDRICAL_SURFACE('',#478,0.45);
#480=CARTESIAN_POINT('',(1.850000000000003,-3.550000000000001,3000.0));
#481=VERTEX_POINT('',#480);
#482=CARTESIAN_POINT('',(1.400000000000003,-3.55,3000.0));
#483=DIRECTION('',(0.0,0.0,-1.0));
#484=DIRECTION('',(-0.707106781186547,-0.707106781186548,0.0));
#485=AXIS2_PLACEMENT_3D('',#482,#483,#484);
#486=CIRCLE('',#485,0.45);
#487=EDGE_CURVE('',#481,#262,#486,.T.);
#488=ORIENTED_EDGE('',*,*,#487,.T.);
#489=ORIENTED_EDGE('',*,*,#267,.T.);
#490=ORIENTED_EDGE('',*,*,#419,.T.);
#491=CARTESIAN_POINT('',(1.850000000000003,-3.550000000000001,0.0));
#492=DIRECTION('',(0.0,0.0,1.0));
#493=VECTOR('',#492,3000.0);
#494=LINE('',#491,#493);
#495=EDGE_CURVE('',#407,#481,#494,.T.);
#496=ORIENTED_EDGE('',*,*,#495,.T.);
#497=EDGE_LOOP('',(#488,#489,#490,#496));
#498=FACE_OUTER_BOUND('',#497,.T.);
#499=ADVANCED_FACE('',(#498),#479,.T.);
#500=CARTESIAN_POINT('',(1.850000000000003,-4.0,0.0));
#501=DIRECTION('',(1.0,0.0,0.0));
#502=DIRECTION('',(0.0,1.0,0.0));
#503=AXIS2_PLACEMENT_3D('',#500,#501,#502);
#504=PLANE('',#503);
#505=ORIENTED_EDGE('',*,*,#178,.F.);
#506=CARTESIAN_POINT('',(1.850000000000003,-3.550000000000001,3000.0));
#507=DIRECTION('',(0.0,1.0,0.0));
#508=VECTOR('',#507,2.54);
#509=LINE('',#506,#508);
#510=EDGE_CURVE('',#481,#166,#509,.T.);
#511=ORIENTED_EDGE('',*,*,#510,.F.);
#512=ORIENTED_EDGE('',*,*,#495,.F.);
#513=ORIENTED_EDGE('',*,*,#412,.T.);
#514=EDGE_LOOP('',(#505,#511,#512,#513));
#515=FACE_OUTER_BOUND('',#514,.T.);
#516=ADVANCED_FACE('',(#515),#504,.T.);
#517=CARTESIAN_POINT('',(8.400000000000002,-3.55,0.0));
#518=DIRECTION('',(0.0,0.0,1.0));
#519=DIRECTION('',(0.707106781186549,-0.707106781186546,0.0));
#520=AXIS2_PLACEMENT_3D('',#517,#518,#519);
#521=CYLINDRICAL_SURFACE('',#520,0.45);
#522=CARTESIAN_POINT('',(8.850000000000001,-3.55,3000.0));
#523=VERTEX_POINT('',#522);
#524=CARTESIAN_POINT('',(8.400000000000002,-3.55,3000.0));
#525=DIRECTION('',(0.0,0.0,-1.0));
#526=DIRECTION('',(-0.707106781186547,-0.707106781186547,0.0));
#527=AXIS2_PLACEMENT_3D('',#524,#525,#526);
#528=CIRCLE('',#527,0.45);
#529=EDGE_CURVE('',#523,#125,#528,.T.);
#530=ORIENTED_EDGE('',*,*,#529,.T.);
#531=ORIENTED_EDGE('',*,*,#130,.T.);
#532=ORIENTED_EDGE('',*,*,#400,.T.);
#533=CARTESIAN_POINT('',(8.850000000000001,-3.55,0.0));
#534=DIRECTION('',(0.0,0.0,1.0));
#535=VECTOR('',#534,3000.0);
#536=LINE('',#533,#535);
#537=EDGE_CURVE('',#388,#523,#536,.T.);
#538=ORIENTED_EDGE('',*,*,#537,.T.);
#539=EDGE_LOOP('',(#530,#531,#532,#538));
#540=FACE_OUTER_BOUND('',#539,.T.);
#541=ADVANCED_FACE('',(#540),#521,.T.);
#542=CARTESIAN_POINT('',(9.800000000000001,0.0,0.0));
#543=DIRECTION('',(0.0,1.0,0.0));
#544=DIRECTION('',(-1.0,0.0,0.0));
#545=AXIS2_PLACEMENT_3D('',#542,#543,#544);
#546=PLANE('',#545);
#547=ORIENTED_EDGE('',*,*,#443,.T.);
#548=CARTESIAN_POINT('',(0.0,0.0,3000.0));
#549=VERTEX_POINT('',#548);
#550=CARTESIAN_POINT('',(0.0,0.0,0.0));
#551=DIRECTION('',(0.0,0.0,1.0));
#552=VECTOR('',#551,3000.0);
#553=LINE('',#550,#552);
#554=EDGE_CURVE('',#432,#549,#553,.T.);
#555=ORIENTED_EDGE('',*,*,#554,.T.);
#556=CARTESIAN_POINT('',(9.800000000000001,0.0,3000.0));
#557=DIRECTION('',(-1.0,0.0,0.0));
#558=VECTOR('',#557,9.800000000000001);
#559=LINE('',#556,#558);
#560=EDGE_CURVE('',#366,#549,#559,.T.);
#561=ORIENTED_EDGE('',*,*,#560,.F.);
#562=ORIENTED_EDGE('',*,*,#371,.F.);
#563=EDGE_LOOP('',(#547,#555,#561,#562));
#564=FACE_OUTER_BOUND('',#563,.T.);
#565=ADVANCED_FACE('',(#564),#546,.T.);
#566=CARTESIAN_POINT('',(8.850000000000001,-4.0,0.0));
#567=DIRECTION('',(1.0,0.0,0.0));
#568=DIRECTION('',(0.0,1.0,0.0));
#569=AXIS2_PLACEMENT_3D('',#566,#567,#568);
#570=PLANE('',#569);
#571=ORIENTED_EDGE('',*,*,#315,.F.);
#572=CARTESIAN_POINT('',(8.850000000000001,-3.55,3000.0));
#573=DIRECTION('',(0.0,1.0,0.0));
#574=VECTOR('',#573,2.177207793864213);
#575=LINE('',#572,#574);
#576=EDGE_CURVE('',#523,#303,#575,.T.);
#577=ORIENTED_EDGE('',*,*,#576,.F.);
#578=ORIENTED_EDGE('',*,*,#537,.F.);
#579=ORIENTED_EDGE('',*,*,#393,.T.);
#580=EDGE_LOOP('',(#571,#577,#578,#579));
#581=FACE_OUTER_BOUND('',#580,.T.);
#582=ADVANCED_FACE('',(#581),#570,.T.);
#583=CARTESIAN_POINT('',(0.0,0.0,0.0));
#584=DIRECTION('',(-1.0,0.0,0.0));
#585=DIRECTION('',(0.0,-1.0,0.0));
#586=AXIS2_PLACEMENT_3D('',#583,#584,#585);
#587=PLANE('',#586);
#588=ORIENTED_EDGE('',*,*,#469,.F.);
#589=CARTESIAN_POINT('',(0.0,0.0,3000.0));
#590=DIRECTION('',(0.0,-1.0,0.0));
#591=VECTOR('',#590,0.050000000000001);
#592=LINE('',#589,#591);
#593=EDGE_CURVE('',#549,#458,#592,.T.);
#594=ORIENTED_EDGE('',*,*,#593,.F.);
#595=ORIENTED_EDGE('',*,*,#554,.F.);
#596=ORIENTED_EDGE('',*,*,#437,.T.);
#597=EDGE_LOOP('',(#588,#594,#595,#596));
#598=FACE_OUTER_BOUND('',#597,.T.);
#599=ADVANCED_FACE('',(#598),#587,.T.);
#600=CARTESIAN_POINT('',(4.900000000000001,-1.375,3000.0));
#601=DIRECTION('',(0.0,0.0,1.0));
#602=DIRECTION('',(1.0,0.0,0.0));
#603=AXIS2_PLACEMENT_3D('',#600,#601,#602);
#604=PLANE('',#603);
#605=ORIENTED_EDGE('',*,*,#346,.F.);
#606=ORIENTED_EDGE('',*,*,#377,.T.);
#607=ORIENTED_EDGE('',*,*,#560,.T.);
#608=ORIENTED_EDGE('',*,*,#593,.T.);
#609=ORIENTED_EDGE('',*,*,#463,.F.);
#610=ORIENTED_EDGE('',*,*,#236,.F.);
#611=ORIENTED_EDGE('',*,*,#273,.T.);
#612=ORIENTED_EDGE('',*,*,#487,.F.);
#613=ORIENTED_EDGE('',*,*,#510,.T.);
#614=ORIENTED_EDGE('',*,*,#172,.F.);
#615=ORIENTED_EDGE('',*,*,#193,.T.);
#616=ORIENTED_EDGE('',*,*,#99,.F.);
#617=ORIENTED_EDGE('',*,*,#136,.T.);
#618=ORIENTED_EDGE('',*,*,#529,.F.);
#619=ORIENTED_EDGE('',*,*,#576,.T.);
#620=ORIENTED_EDGE('',*,*,#309,.F.);
#621=EDGE_LOOP('',(#605,#606,#607,#608,#609,#610,#611,#612,#613,#614,#615,#616,#617,#618,#619,#620));
#622=FACE_OUTER_BOUND('',#621,.T.);
#623=ADVANCED_FACE('',(#622),#604,.T.);
#624=CLOSED_SHELL('',(#109,#140,#182,#204,#246,#277,#319,#350,#381,#450,#474,#499,#516,#541,#565,#582,#599,#623));
#625=MANIFOLD_SOLID_BREP('Bry\X2\0142\X0\a2',#624);
#626=COLOUR_RGB('Aluminium \X2\FFFD\X0\ p\X2\FFFD\X0\aski',0.898039221763611,0.899999976158142,0.899999976158142);
#627=FILL_AREA_STYLE_COLOUR('Aluminium \X2\FFFD\X0\ p\X2\FFFD\X0\aski',#626);
#628=FILL_AREA_STYLE('Aluminium \X2\FFFD\X0\ p\X2\FFFD\X0\aski',(#627));
#629=SURFACE_STYLE_FILL_AREA(#628);
#630=SURFACE_SIDE_STYLE('Aluminium \X2\FFFD\X0\ p\X2\FFFD\X0\aski',(#629));
#631=SURFACE_STYLE_USAGE(.BOTH.,#630);
#632=PRESENTATION_STYLE_ASSIGNMENT((#631));
#633=STYLED_ITEM('',(#632),#625);
#634=MECHANICAL_DESIGN_GEOMETRIC_PRESENTATION_REPRESENTATION('',(#633),#36);
#635=ADVANCED_BREP_SHAPE_REPRESENTATION('ABSR',(#625),#36);
#636=SHAPE_REPRESENTATION_RELATIONSHIP('SRR','None',#635,#41);
ENDSEC;
END-ISO-10303-21;
