ISO-10303-21;
HEADER;
/****************************************************************
 * Generated by software with PDElib inside                    *
 * PDElib Version v51a, created Wed 11/30/2011                  *
 * ITI Transcendata (http://www.transcendata.com/)              *
 ****************************************************************/
FILE_DESCRIPTION((''),'2;1');
FILE_NAME('\\\\192.168.62.3\\Rysunki\\Rysunki katalog\\STEP\\SR\\86317- poprawione.stp','2020-07-28T12:42:20',('trakoczy'),(''),'Autodesk Inventor 2013','Autodesk Inventor 2013','');
FILE_SCHEMA(('AUTOMOTIVE_DESIGN { 1 0 10303 214 1 1 1 1 }'));
ENDSEC;
DATA;
#5=APPLICATION_CONTEXT('automotive design');
#6=APPLICATION_PROTOCOL_DEFINITION('International Standard','automotive_design',2001,#5);
#7=PRODUCT_CONTEXT('',#5,'mechanical');
#8=PRODUCT('86317','86317',$,(#7));
#9=PRODUCT_RELATED_PRODUCT_CATEGORY('part',$,(#8));
#10=PRODUCT_DEFINITION_FORMATION('',$,#8);
#11=PRODUCT_DEFINITION_CONTEXT('part definition',#5,'design');
#12=PRODUCT_DEFINITION('',$,#10,#11);
#18=(NAMED_UNIT(*)PLANE_ANGLE_UNIT()SI_UNIT($,.RADIAN.));
#19=DIMENSIONAL_EXPONENTS(0.0,0.0,0.0,0.0,0.0,0.0,0.0);
#20=PLANE_ANGLE_MEASURE_WITH_UNIT(PLANE_ANGLE_MEASURE(0.0174532925),#18);
#24=(CONVERSION_BASED_UNIT('DEGREE',#20)NAMED_UNIT(#19)PLANE_ANGLE_UNIT());
#28=(NAMED_UNIT(*)SI_UNIT($,.STERADIAN.)SOLID_ANGLE_UNIT());
#32=(LENGTH_UNIT()NAMED_UNIT(*)SI_UNIT(.MILLI.,.METRE.));
#34=UNCERTAINTY_MEASURE_WITH_UNIT(LENGTH_MEASURE(0.01),#32,'DISTANCE_ACCURACY_VALUE','');
#36=(GEOMETRIC_REPRESENTATION_CONTEXT(3)GLOBAL_UNCERTAINTY_ASSIGNED_CONTEXT((#34))GLOBAL_UNIT_ASSIGNED_CONTEXT((#24,#28,#32))REPRESENTATION_CONTEXT('None','None'));
#37=AXIS2_PLACEMENT_3D('',#38,#39,#40);
#38=CARTESIAN_POINT('',(0.0,0.0,0.0));
#39=DIRECTION('',(0.0,0.0,1.0));
#40=DIRECTION('',(1.0,0.0,0.0));
#41=SHAPE_REPRESENTATION('',(#37),#36);
#42=PRODUCT_DEFINITION_SHAPE('','',#12);
#43=SHAPE_DEFINITION_REPRESENTATION(#42,#41);
#49=(NAMED_UNIT(*)PLANE_ANGLE_UNIT()SI_UNIT($,.RADIAN.));
#50=DIMENSIONAL_EXPONENTS(0.0,0.0,0.0,0.0,0.0,0.0,0.0);
#51=PLANE_ANGLE_MEASURE_WITH_UNIT(PLANE_ANGLE_MEASURE(0.0174532925),#49);
#55=(CONVERSION_BASED_UNIT('DEGREE',#51)NAMED_UNIT(#50)PLANE_ANGLE_UNIT());
#59=(NAMED_UNIT(*)SI_UNIT($,.STERADIAN.)SOLID_ANGLE_UNIT());
#63=(LENGTH_UNIT()NAMED_UNIT(*)SI_UNIT(.MILLI.,.METRE.));
#65=UNCERTAINTY_MEASURE_WITH_UNIT(LENGTH_MEASURE(0.000001),#63,'DISTANCE_ACCURACY_VALUE','');
#67=(GEOMETRIC_REPRESENTATION_CONTEXT(3)GLOBAL_UNCERTAINTY_ASSIGNED_CONTEXT((#65))GLOBAL_UNIT_ASSIGNED_CONTEXT((#55,#59,#63))REPRESENTATION_CONTEXT('','3D'));
#68=CARTESIAN_POINT('',(0.0,-3.499999999999999,1.285879E-015));
#69=DIRECTION('',(1.0,0.0,0.0));
#70=DIRECTION('',(0.0,-1.0,0.0));
#71=AXIS2_PLACEMENT_3D('',#68,#69,#70);
#72=CYLINDRICAL_SURFACE('',#71,20.999999999999996);
#73=CARTESIAN_POINT('',(0.0,-17.509288230424261,15.644163233516068));
#74=VERTEX_POINT('',#73);
#75=CARTESIAN_POINT('',(0.0,17.499999999999996,1.285879E-015));
#76=VERTEX_POINT('',#75);
#77=CARTESIAN_POINT('',(0.0,-3.499999999999999,1.285879E-015));
#78=DIRECTION('',(-1.0,0.0,0.0));
#79=DIRECTION('',(0.0,-1.0,0.0));
#80=AXIS2_PLACEMENT_3D('',#77,#78,#79);
#81=CIRCLE('',#80,20.999999999999996);
#82=EDGE_CURVE('',#74,#76,#81,.T.);
#83=ORIENTED_EDGE('',*,*,#82,.F.);
#84=CARTESIAN_POINT('',(20.0,-17.509288230424261,15.644163233516068));
#85=VERTEX_POINT('',#84);
#86=CARTESIAN_POINT('',(0.0,-17.509288230424261,15.644163233516068));
#87=DIRECTION('',(1.0,0.0,0.0));
#88=VECTOR('',#87,20.0);
#89=LINE('',#86,#88);
#90=EDGE_CURVE('',#74,#85,#89,.T.);
#91=ORIENTED_EDGE('',*,*,#90,.T.);
#92=CARTESIAN_POINT('',(20.0,17.499999999999996,2.220446E-015));
#93=VERTEX_POINT('',#92);
#94=CARTESIAN_POINT('',(20.0,-3.499999999999999,1.285879E-015));
#95=DIRECTION('',(1.0,0.0,0.0));
#96=DIRECTION('',(0.0,-1.0,0.0));
#97=AXIS2_PLACEMENT_3D('',#94,#95,#96);
#98=CIRCLE('',#97,20.999999999999996);
#99=EDGE_CURVE('',#93,#85,#98,.T.);
#100=ORIENTED_EDGE('',*,*,#99,.F.);
#101=CARTESIAN_POINT('',(0.0,17.499999999999996,1.285879E-015));
#102=DIRECTION('',(1.0,0.0,0.0));
#103=VECTOR('',#102,20.0);
#104=LINE('',#101,#103);
#105=EDGE_CURVE('',#76,#93,#104,.T.);
#106=ORIENTED_EDGE('',*,*,#105,.F.);
#107=EDGE_LOOP('',(#83,#91,#100,#106));
#108=FACE_OUTER_BOUND('',#107,.T.);
#109=ADVANCED_FACE('',(#108),#72,.T.);
#110=CARTESIAN_POINT('',(0.0,17.499999999999996,-122.35764262282315));
#111=DIRECTION('',(0.0,1.0,0.0));
#112=DIRECTION('',(0.0,0.0,1.0));
#113=AXIS2_PLACEMENT_3D('',#110,#111,#112);
#114=PLANE('',#113);
#115=CARTESIAN_POINT('',(0.0,17.499999999999996,-122.35764262282315));
#116=VERTEX_POINT('',#115);
#117=CARTESIAN_POINT('',(0.0,17.499999999999996,1.285879E-015));
#118=DIRECTION('',(0.0,0.0,-1.0));
#119=VECTOR('',#118,122.35764262282315);
#120=LINE('',#117,#119);
#121=EDGE_CURVE('',#76,#116,#120,.T.);
#122=ORIENTED_EDGE('',*,*,#121,.F.);
#123=ORIENTED_EDGE('',*,*,#105,.T.);
#124=CARTESIAN_POINT('',(20.0,17.499999999999996,-122.35764262282315));
#125=VERTEX_POINT('',#124);
#126=CARTESIAN_POINT('',(20.0,17.499999999999996,-122.35764262282315));
#127=DIRECTION('',(0.0,0.0,1.0));
#128=VECTOR('',#127,122.35764262282315);
#129=LINE('',#126,#128);
#130=EDGE_CURVE('',#125,#93,#129,.T.);
#131=ORIENTED_EDGE('',*,*,#130,.F.);
#132=CARTESIAN_POINT('',(0.0,17.499999999999996,-122.35764262282315));
#133=DIRECTION('',(1.0,0.0,0.0));
#134=VECTOR('',#133,20.0);
#135=LINE('',#132,#134);
#136=EDGE_CURVE('',#116,#125,#135,.T.);
#137=ORIENTED_EDGE('',*,*,#136,.F.);
#138=EDGE_LOOP('',(#122,#123,#131,#137));
#139=FACE_OUTER_BOUND('',#138,.T.);
#140=ADVANCED_FACE('',(#139),#114,.T.);
#141=CARTESIAN_POINT('',(0.0,-1.776660431827448,-123.0));
#142=DIRECTION('',(1.0,0.0,0.0));
#143=DIRECTION('',(0.0,0.815696274689665,0.578480412336842));
#144=AXIS2_PLACEMENT_3D('',#141,#142,#143);
#145=CYLINDRICAL_SURFACE('',#144,19.28736012014074);
#146=CARTESIAN_POINT('',(0.0,-17.509288230424261,-134.15736003518819));
#147=VERTEX_POINT('',#146);
#148=CARTESIAN_POINT('',(0.0,-1.776660431827448,-123.0));
#149=DIRECTION('',(-1.0,0.0,0.0));
#150=DIRECTION('',(0.0,0.815696274689665,0.578480412336842));
#151=AXIS2_PLACEMENT_3D('',#148,#149,#150);
#152=CIRCLE('',#151,19.28736012014074);
#153=EDGE_CURVE('',#116,#147,#152,.T.);
#154=ORIENTED_EDGE('',*,*,#153,.F.);
#155=ORIENTED_EDGE('',*,*,#136,.T.);
#156=CARTESIAN_POINT('',(20.0,-17.509288230424261,-134.15736003518819));
#157=VERTEX_POINT('',#156);
#158=CARTESIAN_POINT('',(20.0,-1.776660431827448,-123.0));
#159=DIRECTION('',(1.0,0.0,0.0));
#160=DIRECTION('',(0.0,0.815696274689665,0.578480412336842));
#161=AXIS2_PLACEMENT_3D('',#158,#159,#160);
#162=CIRCLE('',#161,19.28736012014074);
#163=EDGE_CURVE('',#157,#125,#162,.T.);
#164=ORIENTED_EDGE('',*,*,#163,.F.);
#165=CARTESIAN_POINT('',(0.0,-17.509288230424261,-134.15736003518819));
#166=DIRECTION('',(1.0,0.0,0.0));
#167=VECTOR('',#166,20.0);
#168=LINE('',#165,#167);
#169=EDGE_CURVE('',#147,#157,#168,.T.);
#170=ORIENTED_EDGE('',*,*,#169,.F.);
#171=EDGE_LOOP('',(#154,#155,#164,#170));
#172=FACE_OUTER_BOUND('',#171,.T.);
#173=ADVANCED_FACE('',(#172),#145,.T.);
#174=CARTESIAN_POINT('',(0.0,-16.871874747315644,-133.30392261761546));
#175=DIRECTION('',(0.0,-0.801199109933732,0.598397849462543));
#176=DIRECTION('',(0.0,-0.598397849462543,-0.801199109933732));
#177=AXIS2_PLACEMENT_3D('',#174,#175,#176);
#178=PLANE('',#177);
#179=CARTESIAN_POINT('',(0.0,-16.871874747315644,-133.30392261761546));
#180=VERTEX_POINT('',#179);
#181=CARTESIAN_POINT('',(0.0,-17.509288230424261,-134.15736003518819));
#182=DIRECTION('',(0.0,0.598397849462537,0.801199109933736));
#183=VECTOR('',#182,1.065200156854043);
#184=LINE('',#181,#183);
#185=EDGE_CURVE('',#147,#180,#184,.T.);
#186=ORIENTED_EDGE('',*,*,#185,.F.);
#187=ORIENTED_EDGE('',*,*,#169,.T.);
#188=CARTESIAN_POINT('',(20.0,-16.871874747315644,-133.30392261761546));
#189=VERTEX_POINT('',#188);
#190=CARTESIAN_POINT('',(20.0,-16.871874747315644,-133.30392261761546));
#191=DIRECTION('',(0.0,-0.598397849462537,-0.801199109933736));
#192=VECTOR('',#191,1.065200156854043);
#193=LINE('',#190,#192);
#194=EDGE_CURVE('',#189,#157,#193,.T.);
#195=ORIENTED_EDGE('',*,*,#194,.F.);
#196=CARTESIAN_POINT('',(0.0,-16.871874747315644,-133.30392261761546));
#197=DIRECTION('',(1.0,0.0,0.0));
#198=VECTOR('',#197,20.0);
#199=LINE('',#196,#198);
#200=EDGE_CURVE('',#180,#189,#199,.T.);
#201=ORIENTED_EDGE('',*,*,#200,.F.);
#202=EDGE_LOOP('',(#186,#187,#195,#201));
#203=FACE_OUTER_BOUND('',#202,.T.);
#204=ADVANCED_FACE('',(#203),#178,.T.);
#205=CARTESIAN_POINT('',(0.0,-1.776660431827448,-123.0));
#206=DIRECTION('',(1.0,0.0,0.0));
#207=DIRECTION('',(0.0,-0.825928477020944,-0.563774911508009));
#208=AXIS2_PLACEMENT_3D('',#205,#206,#207);
#209=CYLINDRICAL_SURFACE('',#208,18.276660431827452);
#210=CARTESIAN_POINT('',(0.0,16.5,-123.0));
#211=VERTEX_POINT('',#210);
#212=CARTESIAN_POINT('',(0.0,-1.776660431827448,-123.0));
#213=DIRECTION('',(1.0,0.0,0.0));
#214=DIRECTION('',(0.0,-0.825928477020944,-0.563774911508009));
#215=AXIS2_PLACEMENT_3D('',#212,#213,#214);
#216=CIRCLE('',#215,18.276660431827448);
#217=EDGE_CURVE('',#180,#211,#216,.T.);
#218=ORIENTED_EDGE('',*,*,#217,.F.);
#219=ORIENTED_EDGE('',*,*,#200,.T.);
#220=CARTESIAN_POINT('',(20.0,16.5,-123.0));
#221=VERTEX_POINT('',#220);
#222=CARTESIAN_POINT('',(20.0,-1.776660431827448,-123.0));
#223=DIRECTION('',(-1.0,0.0,0.0));
#224=DIRECTION('',(0.0,-0.825928477020944,-0.563774911508009));
#225=AXIS2_PLACEMENT_3D('',#222,#223,#224);
#226=CIRCLE('',#225,18.276660431827448);
#227=EDGE_CURVE('',#221,#189,#226,.T.);
#228=ORIENTED_EDGE('',*,*,#227,.F.);
#229=CARTESIAN_POINT('',(0.0,16.5,-123.0));
#230=DIRECTION('',(1.0,0.0,0.0));
#231=VECTOR('',#230,20.0);
#232=LINE('',#229,#231);
#233=EDGE_CURVE('',#211,#221,#232,.T.);
#234=ORIENTED_EDGE('',*,*,#233,.F.);
#235=EDGE_LOOP('',(#218,#219,#228,#234));
#236=FACE_OUTER_BOUND('',#235,.T.);
#237=ADVANCED_FACE('',(#236),#209,.F.);
#238=CARTESIAN_POINT('',(0.0,16.5,0.0));
#239=DIRECTION('',(0.0,-1.0,0.0));
#240=DIRECTION('',(0.0,0.0,-1.0));
#241=AXIS2_PLACEMENT_3D('',#238,#239,#240);
#242=PLANE('',#241);
#243=CARTESIAN_POINT('',(0.0,16.5,1.285879E-015));
#244=VERTEX_POINT('',#243);
#245=CARTESIAN_POINT('',(0.0,16.5,-123.0));
#246=DIRECTION('',(0.0,0.0,1.0));
#247=VECTOR('',#246,123.0);
#248=LINE('',#245,#247);
#249=EDGE_CURVE('',#211,#244,#248,.T.);
#250=ORIENTED_EDGE('',*,*,#249,.F.);
#251=ORIENTED_EDGE('',*,*,#233,.T.);
#252=CARTESIAN_POINT('',(20.0,16.5,2.220446E-015));
#253=VERTEX_POINT('',#252);
#254=CARTESIAN_POINT('',(20.0,16.5,0.0));
#255=DIRECTION('',(0.0,0.0,-1.0));
#256=VECTOR('',#255,123.0);
#257=LINE('',#254,#256);
#258=EDGE_CURVE('',#253,#221,#257,.T.);
#259=ORIENTED_EDGE('',*,*,#258,.F.);
#260=CARTESIAN_POINT('',(0.0,16.5,1.285879E-015));
#261=DIRECTION('',(1.0,0.0,0.0));
#262=VECTOR('',#261,20.0);
#263=LINE('',#260,#262);
#264=EDGE_CURVE('',#244,#253,#263,.T.);
#265=ORIENTED_EDGE('',*,*,#264,.F.);
#266=EDGE_LOOP('',(#250,#251,#259,#265));
#267=FACE_OUTER_BOUND('',#266,.T.);
#268=ADVANCED_FACE('',(#267),#242,.T.);
#269=CARTESIAN_POINT('',(0.0,-3.499999999999999,1.285879E-015));
#270=DIRECTION('',(1.0,0.0,0.0));
#271=DIRECTION('',(0.0,1.0,0.0));
#272=AXIS2_PLACEMENT_3D('',#269,#270,#271);
#273=CYLINDRICAL_SURFACE('',#272,20.0);
#274=CARTESIAN_POINT('',(0.0,-16.871874747315644,14.872557471467442));
#275=VERTEX_POINT('',#274);
#276=CARTESIAN_POINT('',(0.0,-3.499999999999999,1.285879E-015));
#277=DIRECTION('',(1.0,0.0,0.0));
#278=DIRECTION('',(0.0,1.0,0.0));
#279=AXIS2_PLACEMENT_3D('',#276,#277,#278);
#280=CIRCLE('',#279,20.0);
#281=EDGE_CURVE('',#244,#275,#280,.T.);
#282=ORIENTED_EDGE('',*,*,#281,.F.);
#283=ORIENTED_EDGE('',*,*,#264,.T.);
#284=CARTESIAN_POINT('',(20.0,-16.871874747315644,14.872557471467442));
#285=VERTEX_POINT('',#284);
#286=CARTESIAN_POINT('',(20.0,-3.499999999999999,1.285879E-015));
#287=DIRECTION('',(-1.0,0.0,0.0));
#288=DIRECTION('',(0.0,1.0,0.0));
#289=AXIS2_PLACEMENT_3D('',#286,#287,#288);
#290=CIRCLE('',#289,20.0);
#291=EDGE_CURVE('',#285,#253,#290,.T.);
#292=ORIENTED_EDGE('',*,*,#291,.F.);
#293=CARTESIAN_POINT('',(0.0,-16.871874747315644,14.872557471467442));
#294=DIRECTION('',(1.0,0.0,0.0));
#295=VECTOR('',#294,20.0);
#296=LINE('',#293,#295);
#297=EDGE_CURVE('',#275,#285,#296,.T.);
#298=ORIENTED_EDGE('',*,*,#297,.F.);
#299=EDGE_LOOP('',(#282,#283,#292,#298));
#300=FACE_OUTER_BOUND('',#299,.T.);
#301=ADVANCED_FACE('',(#300),#273,.F.);
#302=CARTESIAN_POINT('',(0.0,-17.509288230424261,15.644163233516068));
#303=DIRECTION('',(0.0,-0.770961738133966,-0.636881463330073));
#304=DIRECTION('',(0.0,0.636881463330073,-0.770961738133966));
#305=AXIS2_PLACEMENT_3D('',#302,#303,#304);
#306=PLANE('',#305);
#307=CARTESIAN_POINT('',(0.0,-16.871874747315644,14.872557471467442));
#308=DIRECTION('',(0.0,-0.636881463330072,0.770961738133966));
#309=VECTOR('',#308,1.000835351331726);
#310=LINE('',#307,#309);
#311=EDGE_CURVE('',#275,#74,#310,.T.);
#312=ORIENTED_EDGE('',*,*,#311,.F.);
#313=ORIENTED_EDGE('',*,*,#297,.T.);
#314=CARTESIAN_POINT('',(20.0,-17.509288230424261,15.644163233516068));
#315=DIRECTION('',(0.0,0.636881463330072,-0.770961738133966));
#316=VECTOR('',#315,1.000835351331726);
#317=LINE('',#314,#316);
#318=EDGE_CURVE('',#85,#285,#317,.T.);
#319=ORIENTED_EDGE('',*,*,#318,.F.);
#320=ORIENTED_EDGE('',*,*,#90,.F.);
#321=EDGE_LOOP('',(#312,#313,#319,#320));
#322=FACE_OUTER_BOUND('',#321,.T.);
#323=ADVANCED_FACE('',(#322),#306,.T.);
#324=CARTESIAN_POINT('',(20.0,11.642099572222403,-61.341974040137274));
#325=DIRECTION('',(1.0,0.0,0.0));
#326=DIRECTION('',(0.0,0.0,-1.0));
#327=AXIS2_PLACEMENT_3D('',#324,#325,#326);
#328=PLANE('',#327);
#329=ORIENTED_EDGE('',*,*,#318,.T.);
#330=ORIENTED_EDGE('',*,*,#291,.T.);
#331=ORIENTED_EDGE('',*,*,#258,.T.);
#332=ORIENTED_EDGE('',*,*,#227,.T.);
#333=ORIENTED_EDGE('',*,*,#194,.T.);
#334=ORIENTED_EDGE('',*,*,#163,.T.);
#335=ORIENTED_EDGE('',*,*,#130,.T.);
#336=ORIENTED_EDGE('',*,*,#99,.T.);
#337=EDGE_LOOP('',(#329,#330,#331,#332,#333,#334,#335,#336));
#338=FACE_OUTER_BOUND('',#337,.T.);
#339=ADVANCED_FACE('',(#338),#328,.T.);
#340=CARTESIAN_POINT('',(0.0,11.642099572222403,-61.341974040137274));
#341=DIRECTION('',(1.0,0.0,0.0));
#342=DIRECTION('',(0.0,0.0,-1.0));
#343=AXIS2_PLACEMENT_3D('',#340,#341,#342);
#344=PLANE('',#343);
#345=ORIENTED_EDGE('',*,*,#311,.T.);
#346=ORIENTED_EDGE('',*,*,#82,.T.);
#347=ORIENTED_EDGE('',*,*,#121,.T.);
#348=ORIENTED_EDGE('',*,*,#153,.T.);
#349=ORIENTED_EDGE('',*,*,#185,.T.);
#350=ORIENTED_EDGE('',*,*,#217,.T.);
#351=ORIENTED_EDGE('',*,*,#249,.T.);
#352=ORIENTED_EDGE('',*,*,#281,.T.);
#353=EDGE_LOOP('',(#345,#346,#347,#348,#349,#350,#351,#352));
#354=FACE_OUTER_BOUND('',#353,.T.);
#355=ADVANCED_FACE('',(#354),#344,.F.);
#356=CLOSED_SHELL('',(#109,#140,#173,#204,#237,#268,#301,#323,#339,#355));
#357=MANIFOLD_SOLID_BREP('Bry\X2\0142\X0\a1',#356);
#358=COLOUR_RGB('G\X2\FFFD\X0\adkie \X2\FFFD\X0\ czarne',0.019999999552965,0.019999999552965,0.019999999552965);
#359=FILL_AREA_STYLE_COLOUR('G\X2\FFFD\X0\adkie \X2\FFFD\X0\ czarne',#358);
#360=FILL_AREA_STYLE('G\X2\FFFD\X0\adkie \X2\FFFD\X0\ czarne',(#359));
#361=SURFACE_STYLE_FILL_AREA(#360);
#362=SURFACE_SIDE_STYLE('G\X2\FFFD\X0\adkie \X2\FFFD\X0\ czarne',(#361));
#363=SURFACE_STYLE_USAGE(.BOTH.,#362);
#364=PRESENTATION_STYLE_ASSIGNMENT((#363));
#365=STYLED_ITEM('',(#364),#357);
#366=MECHANICAL_DESIGN_GEOMETRIC_PRESENTATION_REPRESENTATION('',(#365),#36);
#367=ADVANCED_BREP_SHAPE_REPRESENTATION('ABSR',(#357),#36);
#368=SHAPE_REPRESENTATION_RELATIONSHIP('SRR','None',#367,#41);
ENDSEC;
END-ISO-10303-21;
