ISO-10303-21;
HEADER;
/****************************************************************
 * Generated by software with PDElib inside                    *
 * PDElib Version v51a, created Wed 11/30/2011                  *
 * ITI Transcendata (http://www.transcendata.com/)              *
 ****************************************************************/
FILE_DESCRIPTION((''),'2;1');
FILE_NAME('\\\\Win\\rysunki\\Inventor\\@SYSTEM RURKOWY\\System rurkowy STEP\\86315.stp','2014-09-05T15:56:40',('Admin'),(''),'Autodesk Inventor 2013','Autodesk Inventor 2013','');
FILE_SCHEMA(('AUTOMOTIVE_DESIGN { 1 0 10303 214 1 1 1 1 }'));
ENDSEC;
DATA;
#5=APPLICATION_CONTEXT('automotive design');
#6=APPLICATION_PROTOCOL_DEFINITION('International Standard','automotive_design',2001,#5);
#7=PRODUCT_CONTEXT('',#5,'mechanical');
#8=PRODUCT('86315','86315',$,(#7));
#9=PRODUCT_RELATED_PRODUCT_CATEGORY('part',$,(#8));
#10=PRODUCT_DEFINITION_FORMATION('',$,#8);
#11=PRODUCT_DEFINITION_CONTEXT('part definition',#5,'design');
#12=PRODUCT_DEFINITION('',$,#10,#11);
#18=(NAMED_UNIT(*)PLANE_ANGLE_UNIT()SI_UNIT($,.RADIAN.));
#19=DIMENSIONAL_EXPONENTS(0.0,0.0,0.0,0.0,0.0,0.0,0.0);
#20=PLANE_ANGLE_MEASURE_WITH_UNIT(PLANE_ANGLE_MEASURE(0.0174532925),#18);
#24=(CONVERSION_BASED_UNIT('DEGREE',#20)NAMED_UNIT(#19)PLANE_ANGLE_UNIT());
#28=(NAMED_UNIT(*)SI_UNIT($,.STERADIAN.)SOLID_ANGLE_UNIT());
#32=(LENGTH_UNIT()NAMED_UNIT(*)SI_UNIT(.MILLI.,.METRE.));
#34=UNCERTAINTY_MEASURE_WITH_UNIT(LENGTH_MEASURE(0.01),#32,'DISTANCE_ACCURACY_VALUE','');
#36=(GEOMETRIC_REPRESENTATION_CONTEXT(3)GLOBAL_UNCERTAINTY_ASSIGNED_CONTEXT((#34))GLOBAL_UNIT_ASSIGNED_CONTEXT((#24,#28,#32))REPRESENTATION_CONTEXT('None','None'));
#37=AXIS2_PLACEMENT_3D('',#38,#39,#40);
#38=CARTESIAN_POINT('',(0.0,0.0,0.0));
#39=DIRECTION('',(0.0,0.0,1.0));
#40=DIRECTION('',(1.0,0.0,0.0));
#41=SHAPE_REPRESENTATION('',(#37),#36);
#42=PRODUCT_DEFINITION_SHAPE('','',#12);
#43=SHAPE_DEFINITION_REPRESENTATION(#42,#41);
#49=(NAMED_UNIT(*)PLANE_ANGLE_UNIT()SI_UNIT($,.RADIAN.));
#50=DIMENSIONAL_EXPONENTS(0.0,0.0,0.0,0.0,0.0,0.0,0.0);
#51=PLANE_ANGLE_MEASURE_WITH_UNIT(PLANE_ANGLE_MEASURE(0.0174532925),#49);
#55=(CONVERSION_BASED_UNIT('DEGREE',#51)NAMED_UNIT(#50)PLANE_ANGLE_UNIT());
#59=(NAMED_UNIT(*)SI_UNIT($,.STERADIAN.)SOLID_ANGLE_UNIT());
#63=(LENGTH_UNIT()NAMED_UNIT(*)SI_UNIT(.MILLI.,.METRE.));
#65=UNCERTAINTY_MEASURE_WITH_UNIT(LENGTH_MEASURE(0.000001),#63,'DISTANCE_ACCURACY_VALUE','');
#67=(GEOMETRIC_REPRESENTATION_CONTEXT(3)GLOBAL_UNCERTAINTY_ASSIGNED_CONTEXT((#65))GLOBAL_UNIT_ASSIGNED_CONTEXT((#55,#59,#63))REPRESENTATION_CONTEXT('','3D'));
#68=CARTESIAN_POINT('',(48.17640687119286,2.0,50.676406871192839));
#69=DIRECTION('',(0.0,-1.0,0.0));
#70=DIRECTION('',(-1.0,0.0,0.0));
#71=AXIS2_PLACEMENT_3D('',#68,#69,#70);
#72=CYLINDRICAL_SURFACE('',#71,2.500000000000002);
#73=CARTESIAN_POINT('',(50.67640687119286,0.0,50.676406871192839));
#74=VERTEX_POINT('',#73);
#75=CARTESIAN_POINT('',(48.17640687119286,0.0,50.676406871192839));
#76=DIRECTION('',(0.0,1.0,0.0));
#77=DIRECTION('',(-1.0,0.0,0.0));
#78=AXIS2_PLACEMENT_3D('',#75,#76,#77);
#79=CIRCLE('',#78,2.500000000000002);
#80=EDGE_CURVE('',#74,#74,#79,.T.);
#81=ORIENTED_EDGE('',*,*,#80,.F.);
#82=EDGE_LOOP('',(#81));
#83=FACE_OUTER_BOUND('',#82,.T.);
#84=CARTESIAN_POINT('',(50.67640687119286,2.0,50.676406871192839));
#85=VERTEX_POINT('',#84);
#86=CARTESIAN_POINT('',(48.17640687119286,2.0,50.676406871192839));
#87=DIRECTION('',(0.0,-1.0,0.0));
#88=DIRECTION('',(-1.0,0.0,0.0));
#89=AXIS2_PLACEMENT_3D('',#86,#87,#88);
#90=CIRCLE('',#89,2.500000000000002);
#91=EDGE_CURVE('',#85,#85,#90,.T.);
#92=ORIENTED_EDGE('',*,*,#91,.F.);
#93=EDGE_LOOP('',(#92));
#94=FACE_BOUND('',#93,.T.);
#95=ADVANCED_FACE('',(#83,#94),#72,.F.);
#96=CARTESIAN_POINT('',(67.0,9.078101985956199,98.852806642870632));
#97=DIRECTION('',(1.0,0.0,0.0));
#98=DIRECTION('',(0.0,0.0,-1.0));
#99=AXIS2_PLACEMENT_3D('',#96,#97,#98);
#100=PLANE('',#99);
#101=CARTESIAN_POINT('',(67.0,2.0,84.852813742385692));
#102=VERTEX_POINT('',#101);
#103=CARTESIAN_POINT('',(67.000000000000014,2.0,82.978298776483058));
#104=VERTEX_POINT('',#103);
#105=CARTESIAN_POINT('',(67.000000000000014,2.0,84.852813742385692));
#106=DIRECTION('',(0.0,0.0,-1.0));
#107=VECTOR('',#106,1.874514965902634);
#108=LINE('',#105,#107);
#109=EDGE_CURVE('',#102,#104,#108,.T.);
#110=ORIENTED_EDGE('',*,*,#109,.F.);
#111=CARTESIAN_POINT('',(67.0,0.0,84.852806642870604));
#112=VERTEX_POINT('',#111);
#113=CARTESIAN_POINT('',(67.000000000000014,0.0,84.852813742385692));
#114=DIRECTION('',(0.0,1.0,0.0));
#115=VECTOR('',#114,2.0);
#116=LINE('',#113,#115);
#117=EDGE_CURVE('',#112,#102,#116,.T.);
#118=ORIENTED_EDGE('',*,*,#117,.F.);
#119=CARTESIAN_POINT('',(67.0,0.0,112.85280664287059));
#120=VERTEX_POINT('',#119);
#121=CARTESIAN_POINT('',(67.0,0.0,98.852806642870604));
#122=DIRECTION('',(-1.0,0.0,0.0));
#123=DIRECTION('',(0.0,0.0,1.0));
#124=AXIS2_PLACEMENT_3D('',#121,#122,#123);
#125=CIRCLE('',#124,13.999999999999989);
#126=EDGE_CURVE('',#120,#112,#125,.T.);
#127=ORIENTED_EDGE('',*,*,#126,.F.);
#128=CARTESIAN_POINT('',(67.0,0.0,114.8528066428706));
#129=VERTEX_POINT('',#128);
#130=CARTESIAN_POINT('',(67.0,0.0,114.8528066428706));
#131=DIRECTION('',(0.0,0.0,-1.0));
#132=VECTOR('',#131,2.000000000000014);
#133=LINE('',#130,#132);
#134=EDGE_CURVE('',#129,#120,#133,.T.);
#135=ORIENTED_EDGE('',*,*,#134,.F.);
#136=CARTESIAN_POINT('',(67.0,0.0,98.852806642870604));
#137=DIRECTION('',(1.0,0.0,0.0));
#138=DIRECTION('',(0.0,0.0,-1.0));
#139=AXIS2_PLACEMENT_3D('',#136,#137,#138);
#140=CIRCLE('',#139,16.000000000000004);
#141=EDGE_CURVE('',#104,#129,#140,.T.);
#142=ORIENTED_EDGE('',*,*,#141,.F.);
#143=EDGE_LOOP('',(#110,#118,#127,#135,#142));
#144=FACE_OUTER_BOUND('',#143,.T.);
#145=ADVANCED_FACE('',(#144),#100,.F.);
#146=CARTESIAN_POINT('',(67.0,0.0,98.852806642870604));
#147=DIRECTION('',(1.0,0.0,0.0));
#148=DIRECTION('',(0.0,0.0,1.0));
#149=AXIS2_PLACEMENT_3D('',#146,#147,#148);
#150=CYLINDRICAL_SURFACE('',#149,13.999999999999989);
#151=ORIENTED_EDGE('',*,*,#126,.T.);
#152=CARTESIAN_POINT('',(83.0,0.0,84.852806642870604));
#153=VERTEX_POINT('',#152);
#154=CARTESIAN_POINT('',(83.000000000000014,0.0,84.852813742385692));
#155=DIRECTION('',(-1.0,0.0,0.0));
#156=VECTOR('',#155,16.000000000000014);
#157=LINE('',#154,#156);
#158=EDGE_CURVE('',#153,#112,#157,.T.);
#159=ORIENTED_EDGE('',*,*,#158,.F.);
#160=CARTESIAN_POINT('',(83.0,0.0,112.85280664287059));
#161=VERTEX_POINT('',#160);
#162=CARTESIAN_POINT('',(83.0,0.0,98.852806642870604));
#163=DIRECTION('',(-1.0,0.0,0.0));
#164=DIRECTION('',(0.0,0.0,1.0));
#165=AXIS2_PLACEMENT_3D('',#162,#163,#164);
#166=CIRCLE('',#165,13.999999999999989);
#167=EDGE_CURVE('',#161,#153,#166,.T.);
#168=ORIENTED_EDGE('',*,*,#167,.F.);
#169=CARTESIAN_POINT('',(67.0,0.0,112.85280664287059));
#170=DIRECTION('',(1.0,0.0,0.0));
#171=VECTOR('',#170,16.0);
#172=LINE('',#169,#171);
#173=EDGE_CURVE('',#120,#161,#172,.T.);
#174=ORIENTED_EDGE('',*,*,#173,.F.);
#175=EDGE_LOOP('',(#151,#159,#168,#174));
#176=FACE_OUTER_BOUND('',#175,.T.);
#177=ADVANCED_FACE('',(#176),#150,.F.);
#178=CARTESIAN_POINT('',(67.0,0.0,114.8528066428706));
#179=DIRECTION('',(0.0,-1.0,0.0));
#180=DIRECTION('',(0.0,0.0,-1.0));
#181=AXIS2_PLACEMENT_3D('',#178,#179,#180);
#182=PLANE('',#181);
#183=ORIENTED_EDGE('',*,*,#134,.T.);
#184=ORIENTED_EDGE('',*,*,#173,.T.);
#185=CARTESIAN_POINT('',(83.0,0.0,114.8528066428706));
#186=VERTEX_POINT('',#185);
#187=CARTESIAN_POINT('',(83.0,0.0,114.8528066428706));
#188=DIRECTION('',(0.0,0.0,-1.0));
#189=VECTOR('',#188,2.000000000000014);
#190=LINE('',#187,#189);
#191=EDGE_CURVE('',#186,#161,#190,.T.);
#192=ORIENTED_EDGE('',*,*,#191,.F.);
#193=CARTESIAN_POINT('',(67.0,0.0,114.8528066428706));
#194=DIRECTION('',(1.0,0.0,0.0));
#195=VECTOR('',#194,16.0);
#196=LINE('',#193,#195);
#197=EDGE_CURVE('',#129,#186,#196,.T.);
#198=ORIENTED_EDGE('',*,*,#197,.F.);
#199=EDGE_LOOP('',(#183,#184,#192,#198));
#200=FACE_OUTER_BOUND('',#199,.T.);
#201=ADVANCED_FACE('',(#200),#182,.T.);
#202=CARTESIAN_POINT('',(67.0,0.0,98.852806642870604));
#203=DIRECTION('',(1.0,0.0,0.0));
#204=DIRECTION('',(0.0,0.0,-1.0));
#205=AXIS2_PLACEMENT_3D('',#202,#203,#204);
#206=CYLINDRICAL_SURFACE('',#205,16.000000000000004);
#207=CARTESIAN_POINT('',(83.0,2.0,82.978298776483058));
#208=VERTEX_POINT('',#207);
#209=CARTESIAN_POINT('',(67.000000000000014,2.0,82.978298776483058));
#210=DIRECTION('',(1.0,0.0,0.0));
#211=VECTOR('',#210,16.0);
#212=LINE('',#209,#211);
#213=EDGE_CURVE('',#104,#208,#212,.T.);
#214=ORIENTED_EDGE('',*,*,#213,.F.);
#215=ORIENTED_EDGE('',*,*,#141,.T.);
#216=ORIENTED_EDGE('',*,*,#197,.T.);
#217=CARTESIAN_POINT('',(83.0,0.0,98.852806642870604));
#218=DIRECTION('',(1.0,0.0,0.0));
#219=DIRECTION('',(0.0,0.0,-1.0));
#220=AXIS2_PLACEMENT_3D('',#217,#218,#219);
#221=CIRCLE('',#220,16.000000000000004);
#222=EDGE_CURVE('',#208,#186,#221,.T.);
#223=ORIENTED_EDGE('',*,*,#222,.F.);
#224=EDGE_LOOP('',(#214,#215,#216,#223));
#225=FACE_OUTER_BOUND('',#224,.T.);
#226=ADVANCED_FACE('',(#225),#206,.T.);
#227=CARTESIAN_POINT('',(83.0,9.078101985956199,98.852806642870632));
#228=DIRECTION('',(1.0,0.0,0.0));
#229=DIRECTION('',(0.0,0.0,-1.0));
#230=AXIS2_PLACEMENT_3D('',#227,#228,#229);
#231=PLANE('',#230);
#232=CARTESIAN_POINT('',(83.0,2.0,84.852813742385692));
#233=VERTEX_POINT('',#232);
#234=CARTESIAN_POINT('',(83.0,2.0,82.978298776483058));
#235=DIRECTION('',(0.0,0.0,1.0));
#236=VECTOR('',#235,1.874514965902634);
#237=LINE('',#234,#236);
#238=EDGE_CURVE('',#208,#233,#237,.T.);
#239=ORIENTED_EDGE('',*,*,#238,.F.);
#240=ORIENTED_EDGE('',*,*,#222,.T.);
#241=ORIENTED_EDGE('',*,*,#191,.T.);
#242=ORIENTED_EDGE('',*,*,#167,.T.);
#243=CARTESIAN_POINT('',(83.0,2.0,84.852813742385692));
#244=DIRECTION('',(0.0,-1.0,0.0));
#245=VECTOR('',#244,2.0);
#246=LINE('',#243,#245);
#247=EDGE_CURVE('',#233,#153,#246,.T.);
#248=ORIENTED_EDGE('',*,*,#247,.F.);
#249=EDGE_LOOP('',(#239,#240,#241,#242,#248));
#250=FACE_OUTER_BOUND('',#249,.T.);
#251=ADVANCED_FACE('',(#250),#231,.T.);
#252=CARTESIAN_POINT('',(49.661072078839638,2.0,49.191741663546068));
#253=DIRECTION('',(0.0,-1.0,0.0));
#254=DIRECTION('',(0.0,0.0,-1.0));
#255=AXIS2_PLACEMENT_3D('',#252,#253,#254);
#256=PLANE('',#255);
#257=ORIENTED_EDGE('',*,*,#109,.T.);
#258=ORIENTED_EDGE('',*,*,#213,.T.);
#259=ORIENTED_EDGE('',*,*,#238,.T.);
#260=CARTESIAN_POINT('',(98.85281374238572,2.0,84.852813742385692));
#261=VERTEX_POINT('',#260);
#262=CARTESIAN_POINT('',(83.000000000000014,2.0,84.852813742385692));
#263=DIRECTION('',(1.0,0.0,0.0));
#264=VECTOR('',#263,15.852813742385706);
#265=LINE('',#262,#264);
#266=EDGE_CURVE('',#233,#261,#265,.T.);
#267=ORIENTED_EDGE('',*,*,#266,.T.);
#268=CARTESIAN_POINT('',(15.874507866387546,2.0,1.874507866387544));
#269=VERTEX_POINT('',#268);
#270=CARTESIAN_POINT('',(98.852813742385706,2.0,84.852813742385692));
#271=DIRECTION('',(-0.707106781186548,0.0,-0.707106781186547));
#272=VECTOR('',#271,117.34904555257967);
#273=LINE('',#270,#272);
#274=EDGE_CURVE('',#261,#269,#273,.T.);
#275=ORIENTED_EDGE('',*,*,#274,.T.);
#276=CARTESIAN_POINT('',(15.874507866387546,2.0,15.999999999999998));
#277=VERTEX_POINT('',#276);
#278=CARTESIAN_POINT('',(15.874507866387546,2.0,15.999999999999998));
#279=DIRECTION('',(0.0,0.0,-1.0));
#280=VECTOR('',#279,14.125492133612454);
#281=LINE('',#278,#280);
#282=EDGE_CURVE('',#277,#269,#281,.T.);
#283=ORIENTED_EDGE('',*,*,#282,.F.);
#284=CARTESIAN_POINT('',(14.000000000000011,2.0,16.0));
#285=VERTEX_POINT('',#284);
#286=CARTESIAN_POINT('',(14.000000000000012,2.0,16.0));
#287=DIRECTION('',(1.0,0.0,0.0));
#288=VECTOR('',#287,1.874507866387535);
#289=LINE('',#286,#288);
#290=EDGE_CURVE('',#285,#277,#289,.T.);
#291=ORIENTED_EDGE('',*,*,#290,.F.);
#292=CARTESIAN_POINT('',(14.00000000000002,2.0,33.0));
#293=VERTEX_POINT('',#292);
#294=CARTESIAN_POINT('',(14.000000000000011,2.0,16.000000000000004));
#295=DIRECTION('',(0.0,0.0,1.0));
#296=VECTOR('',#295,16.999999999999996);
#297=LINE('',#294,#296);
#298=EDGE_CURVE('',#285,#293,#297,.T.);
#299=ORIENTED_EDGE('',*,*,#298,.T.);
#300=CARTESIAN_POINT('',(65.852813742385706,2.0,84.852813742385692));
#301=VERTEX_POINT('',#300);
#302=CARTESIAN_POINT('',(14.000000000000014,2.0,32.999999999999979));
#303=DIRECTION('',(0.707106781186547,0.0,0.707106781186548));
#304=VECTOR('',#303,73.33095244168787);
#305=LINE('',#302,#304);
#306=EDGE_CURVE('',#293,#301,#305,.T.);
#307=ORIENTED_EDGE('',*,*,#306,.T.);
#308=CARTESIAN_POINT('',(65.852813742385706,2.0,84.852813742385692));
#309=DIRECTION('',(1.0,0.0,0.0));
#310=VECTOR('',#309,1.147186257614294);
#311=LINE('',#308,#310);
#312=EDGE_CURVE('',#301,#102,#311,.T.);
#313=ORIENTED_EDGE('',*,*,#312,.T.);
#314=EDGE_LOOP('',(#257,#258,#259,#267,#275,#283,#291,#299,#307,#313));
#315=FACE_OUTER_BOUND('',#314,.T.);
#316=ORIENTED_EDGE('',*,*,#91,.T.);
#317=EDGE_LOOP('',(#316));
#318=FACE_BOUND('',#317,.T.);
#319=ADVANCED_FACE('',(#315,#318),#256,.F.);
#320=CARTESIAN_POINT('',(65.852813742385706,0.0,84.852813742385692));
#321=DIRECTION('',(0.0,0.0,1.0));
#322=DIRECTION('',(1.0,0.0,0.0));
#323=AXIS2_PLACEMENT_3D('',#320,#321,#322);
#324=PLANE('',#323);
#325=ORIENTED_EDGE('',*,*,#247,.T.);
#326=CARTESIAN_POINT('',(98.85281374238572,0.0,84.852813742385692));
#327=VERTEX_POINT('',#326);
#328=CARTESIAN_POINT('',(98.85281374238572,0.0,84.852813742385692));
#329=DIRECTION('',(-1.0,0.0,0.0));
#330=VECTOR('',#329,15.852813742385706);
#331=LINE('',#328,#330);
#332=EDGE_CURVE('',#327,#153,#331,.T.);
#333=ORIENTED_EDGE('',*,*,#332,.F.);
#334=CARTESIAN_POINT('',(98.85281374238572,0.0,84.852813742385692));
#335=DIRECTION('',(0.0,1.0,0.0));
#336=VECTOR('',#335,2.0);
#337=LINE('',#334,#336);
#338=EDGE_CURVE('',#327,#261,#337,.T.);
#339=ORIENTED_EDGE('',*,*,#338,.T.);
#340=ORIENTED_EDGE('',*,*,#266,.F.);
#341=EDGE_LOOP('',(#325,#333,#339,#340));
#342=FACE_OUTER_BOUND('',#341,.T.);
#343=ADVANCED_FACE('',(#342),#324,.T.);
#344=CARTESIAN_POINT('',(98.85281374238572,0.0,84.852813742385692));
#345=DIRECTION('',(0.707106781186547,0.0,-0.707106781186548));
#346=DIRECTION('',(-0.707106781186548,0.0,-0.707106781186547));
#347=AXIS2_PLACEMENT_3D('',#344,#345,#346);
#348=PLANE('',#347);
#349=CARTESIAN_POINT('',(16.0,0.0,1.999999999999999));
#350=VERTEX_POINT('',#349);
#351=CARTESIAN_POINT('',(0.0,0.0,-14.000000000000011));
#352=DIRECTION('',(0.707106781186547,0.0,-0.707106781186548));
#353=DIRECTION('',(0.707106781186548,0.0,0.707106781186547));
#354=AXIS2_PLACEMENT_3D('',#351,#352,#353);
#355=ELLIPSE('',#354,22.627416997969519,16.0);
#356=EDGE_CURVE('',#269,#350,#355,.T.);
#357=ORIENTED_EDGE('',*,*,#356,.F.);
#358=ORIENTED_EDGE('',*,*,#274,.F.);
#359=ORIENTED_EDGE('',*,*,#338,.F.);
#360=CARTESIAN_POINT('',(16.0,0.0,1.999999999999999));
#361=DIRECTION('',(0.707106781186548,0.0,0.707106781186547));
#362=VECTOR('',#361,117.1715728752538);
#363=LINE('',#360,#362);
#364=EDGE_CURVE('',#350,#327,#363,.T.);
#365=ORIENTED_EDGE('',*,*,#364,.F.);
#366=EDGE_LOOP('',(#357,#358,#359,#365));
#367=FACE_OUTER_BOUND('',#366,.T.);
#368=ADVANCED_FACE('',(#367),#348,.T.);
#369=CARTESIAN_POINT('',(65.852813742385706,0.0,84.852813742385692));
#370=DIRECTION('',(0.0,0.0,1.0));
#371=DIRECTION('',(1.0,0.0,0.0));
#372=AXIS2_PLACEMENT_3D('',#369,#370,#371);
#373=PLANE('',#372);
#374=ORIENTED_EDGE('',*,*,#117,.T.);
#375=ORIENTED_EDGE('',*,*,#312,.F.);
#376=CARTESIAN_POINT('',(65.852813742385706,0.0,84.852813742385692));
#377=VERTEX_POINT('',#376);
#378=CARTESIAN_POINT('',(65.852813742385706,0.0,84.852813742385692));
#379=DIRECTION('',(0.0,1.0,0.0));
#380=VECTOR('',#379,2.0);
#381=LINE('',#378,#380);
#382=EDGE_CURVE('',#377,#301,#381,.T.);
#383=ORIENTED_EDGE('',*,*,#382,.F.);
#384=CARTESIAN_POINT('',(67.0,0.0,84.852813742385692));
#385=DIRECTION('',(-1.0,0.0,0.0));
#386=VECTOR('',#385,1.147186257614294);
#387=LINE('',#384,#386);
#388=EDGE_CURVE('',#112,#377,#387,.T.);
#389=ORIENTED_EDGE('',*,*,#388,.F.);
#390=EDGE_LOOP('',(#374,#375,#383,#389));
#391=FACE_OUTER_BOUND('',#390,.T.);
#392=ADVANCED_FACE('',(#391),#373,.T.);
#393=CARTESIAN_POINT('',(14.000000000000012,0.0,32.999999999999979));
#394=DIRECTION('',(-0.707106781186548,0.0,0.707106781186547));
#395=DIRECTION('',(0.707106781186547,0.0,0.707106781186548));
#396=AXIS2_PLACEMENT_3D('',#393,#394,#395);
#397=PLANE('',#396);
#398=CARTESIAN_POINT('',(14.00000000000002,0.0,33.0));
#399=VERTEX_POINT('',#398);
#400=CARTESIAN_POINT('',(65.852813742385706,0.0,84.852813742385692));
#401=DIRECTION('',(-0.707106781186547,0.0,-0.707106781186548));
#402=VECTOR('',#401,73.33095244168787);
#403=LINE('',#400,#402);
#404=EDGE_CURVE('',#377,#399,#403,.T.);
#405=ORIENTED_EDGE('',*,*,#404,.F.);
#406=ORIENTED_EDGE('',*,*,#382,.T.);
#407=ORIENTED_EDGE('',*,*,#306,.F.);
#408=CARTESIAN_POINT('',(14.00000000000002,0.0,33.0));
#409=DIRECTION('',(0.0,1.0,0.0));
#410=VECTOR('',#409,2.0);
#411=LINE('',#408,#410);
#412=EDGE_CURVE('',#399,#293,#411,.T.);
#413=ORIENTED_EDGE('',*,*,#412,.F.);
#414=EDGE_LOOP('',(#405,#406,#407,#413));
#415=FACE_OUTER_BOUND('',#414,.T.);
#416=ADVANCED_FACE('',(#415),#397,.T.);
#417=CARTESIAN_POINT('',(14.000000000000002,0.0,0.0));
#418=DIRECTION('',(-1.0,0.0,0.0));
#419=DIRECTION('',(0.0,0.0,1.0));
#420=AXIS2_PLACEMENT_3D('',#417,#418,#419);
#421=PLANE('',#420);
#422=CARTESIAN_POINT('',(14.000000000000002,0.0,16.0));
#423=VERTEX_POINT('',#422);
#424=CARTESIAN_POINT('',(14.000000000000011,0.0,16.0));
#425=DIRECTION('',(0.0,1.0,0.0));
#426=VECTOR('',#425,2.0);
#427=LINE('',#424,#426);
#428=EDGE_CURVE('',#423,#285,#427,.T.);
#429=ORIENTED_EDGE('',*,*,#428,.F.);
#430=CARTESIAN_POINT('',(14.00000000000002,0.0,33.0));
#431=DIRECTION('',(0.0,0.0,-1.0));
#432=VECTOR('',#431,16.999999999999996);
#433=LINE('',#430,#432);
#434=EDGE_CURVE('',#399,#423,#433,.T.);
#435=ORIENTED_EDGE('',*,*,#434,.F.);
#436=ORIENTED_EDGE('',*,*,#412,.T.);
#437=ORIENTED_EDGE('',*,*,#298,.F.);
#438=EDGE_LOOP('',(#429,#435,#436,#437));
#439=FACE_OUTER_BOUND('',#438,.T.);
#440=ADVANCED_FACE('',(#439),#421,.T.);
#441=CARTESIAN_POINT('',(-5.574466E-017,9.078101985956204,16.0));
#442=DIRECTION('',(0.0,0.0,1.0));
#443=DIRECTION('',(1.0,0.0,0.0));
#444=AXIS2_PLACEMENT_3D('',#441,#442,#443);
#445=PLANE('',#444);
#446=ORIENTED_EDGE('',*,*,#428,.T.);
#447=ORIENTED_EDGE('',*,*,#290,.T.);
#448=CARTESIAN_POINT('',(-16.0,0.0,16.0));
#449=VERTEX_POINT('',#448);
#450=CARTESIAN_POINT('',(0.0,0.0,16.0));
#451=DIRECTION('',(0.0,0.0,1.0));
#452=DIRECTION('',(1.0,0.0,0.0));
#453=AXIS2_PLACEMENT_3D('',#450,#451,#452);
#454=CIRCLE('',#453,16.0);
#455=EDGE_CURVE('',#277,#449,#454,.T.);
#456=ORIENTED_EDGE('',*,*,#455,.T.);
#457=CARTESIAN_POINT('',(-14.000000000000002,0.0,16.0));
#458=VERTEX_POINT('',#457);
#459=CARTESIAN_POINT('',(-16.0,0.0,16.0));
#460=DIRECTION('',(1.0,0.0,0.0));
#461=VECTOR('',#460,2.0);
#462=LINE('',#459,#461);
#463=EDGE_CURVE('',#449,#458,#462,.T.);
#464=ORIENTED_EDGE('',*,*,#463,.T.);
#465=CARTESIAN_POINT('',(0.0,0.0,16.0));
#466=DIRECTION('',(0.0,0.0,-1.0));
#467=DIRECTION('',(-1.0,0.0,0.0));
#468=AXIS2_PLACEMENT_3D('',#465,#466,#467);
#469=CIRCLE('',#468,14.000000000000002);
#470=EDGE_CURVE('',#458,#423,#469,.T.);
#471=ORIENTED_EDGE('',*,*,#470,.T.);
#472=EDGE_LOOP('',(#446,#447,#456,#464,#471));
#473=FACE_OUTER_BOUND('',#472,.T.);
#474=ADVANCED_FACE('',(#473),#445,.T.);
#475=CARTESIAN_POINT('',(0.0,0.0,0.0));
#476=DIRECTION('',(0.0,0.0,1.0));
#477=DIRECTION('',(1.0,0.0,0.0));
#478=AXIS2_PLACEMENT_3D('',#475,#476,#477);
#479=CYLINDRICAL_SURFACE('',#478,16.0);
#480=ORIENTED_EDGE('',*,*,#282,.T.);
#481=ORIENTED_EDGE('',*,*,#356,.T.);
#482=CARTESIAN_POINT('',(16.0,0.0,0.0));
#483=VERTEX_POINT('',#482);
#484=CARTESIAN_POINT('',(16.0,0.0,0.0));
#485=DIRECTION('',(0.0,0.0,1.0));
#486=VECTOR('',#485,1.999999999999999);
#487=LINE('',#484,#486);
#488=EDGE_CURVE('',#483,#350,#487,.T.);
#489=ORIENTED_EDGE('',*,*,#488,.F.);
#490=CARTESIAN_POINT('',(-16.0,0.0,0.0));
#491=VERTEX_POINT('',#490);
#492=CARTESIAN_POINT('',(0.0,0.0,0.0));
#493=DIRECTION('',(0.0,0.0,1.0));
#494=DIRECTION('',(1.0,0.0,0.0));
#495=AXIS2_PLACEMENT_3D('',#492,#493,#494);
#496=CIRCLE('',#495,16.0);
#497=EDGE_CURVE('',#483,#491,#496,.T.);
#498=ORIENTED_EDGE('',*,*,#497,.T.);
#499=CARTESIAN_POINT('',(-16.0,0.0,0.0));
#500=DIRECTION('',(0.0,0.0,1.0));
#501=VECTOR('',#500,16.0);
#502=LINE('',#499,#501);
#503=EDGE_CURVE('',#491,#449,#502,.T.);
#504=ORIENTED_EDGE('',*,*,#503,.T.);
#505=ORIENTED_EDGE('',*,*,#455,.F.);
#506=EDGE_LOOP('',(#480,#481,#489,#498,#504,#505));
#507=FACE_OUTER_BOUND('',#506,.T.);
#508=ADVANCED_FACE('',(#507),#479,.T.);
#509=CARTESIAN_POINT('',(-16.0,0.0,0.0));
#510=DIRECTION('',(0.0,-1.0,0.0));
#511=DIRECTION('',(1.0,0.0,0.0));
#512=AXIS2_PLACEMENT_3D('',#509,#510,#511);
#513=PLANE('',#512);
#514=CARTESIAN_POINT('',(-14.000000000000002,0.0,0.0));
#515=VERTEX_POINT('',#514);
#516=CARTESIAN_POINT('',(-16.0,0.0,0.0));
#517=DIRECTION('',(1.0,0.0,0.0));
#518=VECTOR('',#517,2.0);
#519=LINE('',#516,#518);
#520=EDGE_CURVE('',#491,#515,#519,.T.);
#521=ORIENTED_EDGE('',*,*,#520,.T.);
#522=CARTESIAN_POINT('',(-14.000000000000002,0.0,0.0));
#523=DIRECTION('',(0.0,0.0,1.0));
#524=VECTOR('',#523,16.0);
#525=LINE('',#522,#524);
#526=EDGE_CURVE('',#515,#458,#525,.T.);
#527=ORIENTED_EDGE('',*,*,#526,.T.);
#528=ORIENTED_EDGE('',*,*,#463,.F.);
#529=ORIENTED_EDGE('',*,*,#503,.F.);
#530=EDGE_LOOP('',(#521,#527,#528,#529));
#531=FACE_OUTER_BOUND('',#530,.T.);
#532=ADVANCED_FACE('',(#531),#513,.T.);
#533=CARTESIAN_POINT('',(14.000000000000002,0.0,0.0));
#534=DIRECTION('',(0.0,-1.0,0.0));
#535=DIRECTION('',(1.0,0.0,0.0));
#536=AXIS2_PLACEMENT_3D('',#533,#534,#535);
#537=PLANE('',#536);
#538=ORIENTED_EDGE('',*,*,#388,.T.);
#539=ORIENTED_EDGE('',*,*,#404,.T.);
#540=ORIENTED_EDGE('',*,*,#434,.T.);
#541=CARTESIAN_POINT('',(14.000000000000002,0.0,0.0));
#542=VERTEX_POINT('',#541);
#543=CARTESIAN_POINT('',(14.000000000000002,0.0,0.0));
#544=DIRECTION('',(0.0,0.0,1.0));
#545=VECTOR('',#544,16.0);
#546=LINE('',#543,#545);
#547=EDGE_CURVE('',#542,#423,#546,.T.);
#548=ORIENTED_EDGE('',*,*,#547,.F.);
#549=CARTESIAN_POINT('',(14.000000000000002,0.0,0.0));
#550=DIRECTION('',(1.0,0.0,0.0));
#551=VECTOR('',#550,1.999999999999998);
#552=LINE('',#549,#551);
#553=EDGE_CURVE('',#542,#483,#552,.T.);
#554=ORIENTED_EDGE('',*,*,#553,.T.);
#555=ORIENTED_EDGE('',*,*,#488,.T.);
#556=ORIENTED_EDGE('',*,*,#364,.T.);
#557=ORIENTED_EDGE('',*,*,#332,.T.);
#558=ORIENTED_EDGE('',*,*,#158,.T.);
#559=EDGE_LOOP('',(#538,#539,#540,#548,#554,#555,#556,#557,#558));
#560=FACE_OUTER_BOUND('',#559,.T.);
#561=ORIENTED_EDGE('',*,*,#80,.T.);
#562=EDGE_LOOP('',(#561));
#563=FACE_BOUND('',#562,.T.);
#564=ADVANCED_FACE('',(#560,#563),#537,.T.);
#565=CARTESIAN_POINT('',(0.0,0.0,0.0));
#566=DIRECTION('',(0.0,0.0,1.0));
#567=DIRECTION('',(-1.0,0.0,0.0));
#568=AXIS2_PLACEMENT_3D('',#565,#566,#567);
#569=CYLINDRICAL_SURFACE('',#568,14.000000000000002);
#570=CARTESIAN_POINT('',(0.0,0.0,0.0));
#571=DIRECTION('',(0.0,0.0,-1.0));
#572=DIRECTION('',(-1.0,0.0,0.0));
#573=AXIS2_PLACEMENT_3D('',#570,#571,#572);
#574=CIRCLE('',#573,14.000000000000002);
#575=EDGE_CURVE('',#515,#542,#574,.T.);
#576=ORIENTED_EDGE('',*,*,#575,.T.);
#577=ORIENTED_EDGE('',*,*,#547,.T.);
#578=ORIENTED_EDGE('',*,*,#470,.F.);
#579=ORIENTED_EDGE('',*,*,#526,.F.);
#580=EDGE_LOOP('',(#576,#577,#578,#579));
#581=FACE_OUTER_BOUND('',#580,.T.);
#582=ADVANCED_FACE('',(#581),#569,.F.);
#583=CARTESIAN_POINT('',(-5.574466E-017,9.078101985956204,0.0));
#584=DIRECTION('',(0.0,0.0,1.0));
#585=DIRECTION('',(1.0,0.0,0.0));
#586=AXIS2_PLACEMENT_3D('',#583,#584,#585);
#587=PLANE('',#586);
#588=ORIENTED_EDGE('',*,*,#575,.F.);
#589=ORIENTED_EDGE('',*,*,#520,.F.);
#590=ORIENTED_EDGE('',*,*,#497,.F.);
#591=ORIENTED_EDGE('',*,*,#553,.F.);
#592=EDGE_LOOP('',(#588,#589,#590,#591));
#593=FACE_OUTER_BOUND('',#592,.T.);
#594=ADVANCED_FACE('',(#593),#587,.F.);
#595=CLOSED_SHELL('',(#95,#145,#177,#201,#226,#251,#319,#343,#368,#392,#416,#440,#474,#508,#532,#564,#582,#594));
#596=MANIFOLD_SOLID_BREP('Bry\X2\0142\X0\a1',#595);
#597=COLOUR_RGB('Stal  polerowana',0.745000004768372,0.736999988555908,0.728999972343445);
#598=FILL_AREA_STYLE_COLOUR('Stal  polerowana',#597);
#599=FILL_AREA_STYLE('Stal  polerowana',(#598));
#600=SURFACE_STYLE_FILL_AREA(#599);
#601=SURFACE_SIDE_STYLE('Stal  polerowana',(#600));
#602=SURFACE_STYLE_USAGE(.BOTH.,#601);
#603=PRESENTATION_STYLE_ASSIGNMENT((#602));
#604=STYLED_ITEM('',(#603),#596);
#605=MECHANICAL_DESIGN_GEOMETRIC_PRESENTATION_REPRESENTATION('',(#604),#36);
#606=ADVANCED_BREP_SHAPE_REPRESENTATION('ABSR',(#596),#36);
#607=SHAPE_REPRESENTATION_RELATIONSHIP('SRR','None',#606,#41);
ENDSEC;
END-ISO-10303-21;
